Oops, an error
Loading. Please wait.

Starboy Tab

version 1
version 1

Whole song

Video

7,876 views 237 this week
1 commentread comment
1 2 3 4 5
x 13
add to favorites
launch autoscroll
font size
0
reset
how to read this tab
guitar tuner
×
Best way to learn
"Starboy"
Autoscroll
slow
fast
+/-
esc
set tempo
stop
Author
Difficulty
novice
[Intro/Verse]

e|-----------------0-----0---------0------0-----------0---0---------0----------|
B|-1-3-3-3-3-3-3-3---3-0---3-3-3-3---3--1---3-3-3-3-3---0---3-3-3-3---3--1-----|
G|-2-------------------0----------------2---------------0----------------2-----|
D|-2-------------------0----------------3---------------0----------------2-----|
A|-0-------------------2----------------3---------------2----------------0-----|
E|---------------------3--------------------------------3----------------------|

e|-----------0------------------0----------------0------0---------0------------|
B|-3-3-3-3-3---3--0-3-3-3-3-3-3---3--1-3-3-3-3-3---3--0---3-3-3-3---3-1--------|
G|----------------0------------------2----------------0------------------------|
D|----------------0------------------3----------------0------------------------|
A|----------------2------------------3----------------2------------------------|
E|----------------3-----------------------------------3------------------------|


[Pre-Chorus]

e|---0-0-0-0-0-0-0-3-0---0-0-0-0-0-0-0-5-0---0-0-0-0-0-0-0-0-3-0---------------------x-----|
B|-1-------------------0-------------------1---------------------3-1-1-1-3-3-3-3-3-1-x-----|
G|-2-------------------0-------------------2-----------------------------------------x-----|
D|-2-------------------0-------------------3-----------------------------------------x-----|
A|-0-------------------2-------------------3-----------------------------------------x-----|
E|---------------------3-------------------------------------------------------------x-----|


[Chorus]

e|---------------------0-0-3-0-5--------------------------------------x-----------|
B|-1-1-1-1-1-1-1-0-0-0-----------1-1-1-1-1-1-1--0-0-3-3-3-3-3-3-3-3/1-x-----------|
G|-2-------------0---------------2--------------0---------------------x-----------|
D|-2-------------0---------------3--------------0---------------------x-----------|
A|-0-------------2---------------3--------------2---------------------x-----------|
E|---------------3------------------------------3---------------------x-----------|

e|---------------------0-0-3-0-5-------------------------------------------------|
B|-1-1-1-1-1-1-1-0-0-0-----------1-1-1-1-1-1-1--0-0-3-3-3-3-3-3-3-3/1------------|
G|-2-------------0---------------2--------------0--------------------------------|
D|-2-------------0---------------3--------------0--------------------------------|
A|-0-------------2---------------3--------------2--------------------------------|
E|---------------3------------------------------3--------------------------------|


[Bridge]

e|--------------------------------------------------------------------------------|
B|-1-1-1-1---------------------------1-1-1-1-1-1-1-1-1-1-3--0-0-0-0-0-0-0-0-0-0---|
G|-2-------0-0-0-0-0--0-0-0-0-0-0----2----------------------0-------------------2-|
D|-2------------------------------2--2----------------------0---------------------|
A|-0---------------------------------0----------------------2---------------------|
E|----------------------------------------------------------3---------------------|

e|---------------------------------------------------------------------------------------------------------|
B|-1-1-1-1-1-1-1-3-0-0-0-0-0-0-0-1p0--1-1-1-1-1-1-1-1-1-3--0-0-0-0-3-0-0-0-0-3-0-0-0-0-1p0-2---------------|
G|-2---------------0----------------2-2--------------------0-------------------------------2---------------|
D|-3---------------0------------------2--------------------0-------------------------------0---------------|
A|-3---------------2------------------0--------------------2-----------------------------------------------|
E|-----------------3---------------------------------------3-----------------------------------------------|
 

************************************

| x  Dead note
| /  Slide up
| p  Pull-off

************************************
Suggest correction
comments
print report bad tab
1 comment total.
0 reply
pfau6968 10 Jan 22, 2017 03:08 AM

There's a wrong end

guest
You may want to rate the tab now too:
select rating
Wanna post a correction for this tab? Suggest correction