Oops, an error
Loading. Please wait.

The Morning tab

version 2
version 2

Whole song

4,202 views 36 this week
no commentswrite comment
1 2 3 4 5
x 5
add to favorites
×
Save as Personal and add changes to this tab that will be seen only by you. Learn more ›
×
You can save this tab as Personal to edit and correct it or add notes. All changes will be seen only by you. Learn more »
launch autoscroll
font size
0
reset
how to read this tab
guitar tuner
edit
Autoscroll
slow
fast
+/-
esc
set tempo
stop
Author
Difficulty
-------------------------------------------------------------------------------
                             The Morning by The Weeknd
-------------------------------------------------------------------------------
Tabbed by: Austin Cole
h = hammer on
p = pull off
b = bend
/ = slide up
\ = slide down
~ = vibrato
pb = pre-bend
br = bend release

Here is the official tabs for the Intro solo, and the chorus of "The Morning" I slowed down the track to hear
every tab, and I came up with this. Hope it helps.


e|-----------------------------------|------------------------------17---17|
B|10h12--10----10-12b14--17--12b14-10|-12\14-14-19--17\19--19-17-19----19--|
G|----------11-----------------------|-------------------------------------|
D|-----------------------------------|-------------------------------------|
A|-----------------------------------|-------------------------------------|
E|-----------------------------------|-------------------------------------|


e|-----------------------------------------------|---------------------------------|
B|19b21br-17-19-17-------------------------------|---------------------------------|
G|------------------18-16-18b20br--16-18-16-14---|-16b17br-14----16-14-------------|
D|---------------------------------------------16|-------------16-------16~--14\16/|
A|-----------------------------------------------|---------------------------------|
E|-----------------------------------------------|---------------------------------|

e|---------------------------------------------------------------------------|
B|-----------------------12b14-12b14--pb12br--10------------10~--------------|
G|-------14--------11-14-------------------------11-9-11---------------------|
D|-----14-------14-----------------------------------------------------------|
A|---16----------------------------------------------------------------------|
E|---------------------------------------------------------------------------|

This is the chorus
e|-14-------12------------------------------------|    |14--------12-------------------------|
B|--------------------14p12---10-7-10\12-12\14----|    |-------------------------------------|
G|------------------------------------------------| x3 |----------------pb12br-10------------|
D|------------------------------------------------|    |-------------------------11-9------9-|
A|------------------------------------------------|    |------------------------------11-----|
E|------------------------------------------------|    |-------------------------------------|
  All that money, the money is the motive...          ... girl put in work



            
            
Suggest correction
Creating personal tab
Creating personal tab
You can edit any tab online and save it as your Personal.

You can edit, replace or remove any tab part or add personal notes – all changes will be seen only by you.

Personal tabs can be accessed anytime from any device, even offline.
Learn more »
comments
print report bad tab
guest
You may want to rate the tab now too:
select rating
Wanna post a correction for this tab? Suggest correction