Oops, an error
Loading. Please wait.

Wanderlust chords

43 views 12 this week
no commentswrite comment
1 2 3 4 5
3 more votes to show rating
add to favorites
×
Save as Personal and add changes to this tab that will be seen only by you. Learn more ›
×
You can save this tab as Personal to edit and correct it or add notes. All changes will be seen only by you. Learn more »
launch autoscroll
font size
0
reset
transpose
0
reset
simplify chords
display chords
guitar tuner
edit
Autoscroll
slow
fast
+/-
esc
set tempo
stop
Strumming
There is no strumming pattern for this song yet. and get +5 IQ
The Weeknd
"Wanderlust"

Standard tuning. Capo 4th fret.


[Intro]
  Am                                G6
e|----------------|----------------|----------------|----------------|
B|----------------|8b10------------|-------------5p3|5---------------|
G|----------------|----------------|----------------|----------------|
D|----------------|----------------|----------------|----------------|
A|----------------|----------------|----------------|----------------|
E|----------------|----------------|----------------|----------------|
 |
e|----------------|----------------|----------------|----------------|
B|------0---1-----|------0---1-----|------0---1-----|------0---1-----|
G|----2-----------|----2-----------|----2-----------|----2-----------|
D|--2-------------|--2-------------|--2-------------|--2-------------|
A|0---------------|0---------------|----------------|----------------|
E|----------------|----------------|3---------------|3---------------|

  FM               G6               Am
e|----------------|----------------|----------------|----------------|
B|----------------|3-----1------3p1|----------------|----------------|
G|----------------|----------------|2---------------|----------------|
D|----------------|----------------|----------------|----------------|
A|----------------|----------------|----------------|----------------|
E|----------------|----------------|----------------|----------------|
 |
e|----------------|----------------|----------------|----------------|
B|------0---1-----|------0---1-----|------0---1-----|--1-0-----------|
G|----2-----------|----2-----------|----2-----------|------2---------|
D|--2-------------|--2-------------|--2-------------|----------------|
A|----------------|----------------|0---------------|0---------------|
E|1---------------|3---------------|----------------|----------------|

Am
G
F     G
Am  F   G

[Verse 1
Am
Is it so hard to say the same thing?
G
And you're so weak to say the same thing
F                     G
Burn a hole into your apprehensiveness
            Am
And let the wildfire shine
    F            G
And repeat after me (like)
Am
Good girls go to heaven
G
And bad girls go everywhere
F                  G
And tonight I will love you
Am                     F    G
And tomorrow you won't care


[Bridge]
                Am
Precious little diamond
                  G
I leave it all to you
                F
Precious little diamond
G              Am
Let it come to you
F                G               Am
Precious little, Precious little diamond
                  G
I leave it all to you
                F
Precious little diamond
G              Am   F G
Let it come to you


[Hook 1]
          Am
You're in love with something bigger than love
     G
You believe in something stronger than trust
      F
Wanderlust
      Dm
Wanderlust


[Verse 2]
          Am
Don't you shy away from me
                    G
Just sacrifice your every last inhibition
            F
I'm on your side
            G
Don't patronize
            Am
You know tonight
       F               G
Is the only time we'll have each other
Am                   G
Why would you try to waste this precious time?
      F                     G
Cuz tonight, we'll be right here
      Am                 F  G
And tomorrow you won't care


[Bridge]
                Am
Precious little diamond

Precious little diamond
                  G
I leave it all to you

I leave it all to you
                F
Precious little diamond
                G
Precious little diamond
               Am
Let it come to you
F                G               Am
Precious little, Precious little diamond

Precious little diamond
                  G
I leave it all to you

I leave it all to you
                F
Precious little diamond
                G
Precious little diamond
               Am
Let it come to you


[Hook 2]
          Am
You're in love with something bigger than love
     G
You believe in something stronger than trust
      F
Wanderlust
      Dm
Wanderlust
           Am
They're in love with this idea of love
        G
It's a shame that they'll believe it will come
       F
For us all,
       Dm
For us all
          Am
You're in love with something bigger than love
    G
You believe in something stronger than trust
      F
Wanderlust
      Dm
Wanderlust


[Outro]
                Am
Precious little diamond

Precious little diamond
                  G
I leave it all to you

I leave it all to you
                F
Precious little diamond
                G
Precious little diamond
               Am    F
Let it come to you
G               Am
Precious little diamond

Precious little diamond
                  G
I leave it all to you

I leave it all to you
                F
Precious little diamond
                G
Precious little diamond
               Am
Let it come to you

Precious little diamond
                  G
I leave it all to you

I leave it all to you
                F
Precious little diamond
                G
Precious little diamond
               Am
Let it come to you
F                G               Am
Precious little, Precious little diamond

Precious little diamond
                  G
I leave it all to you

I leave it all to you
                F
Precious little diamond
                G
Precious little diamond
               Am
Let it come to you

Precious little diamond
Suggest correction
Creating personal tab
Creating personal tab
You can edit any tab online and save it as your Personal.

You can edit, replace or remove any tab part or add personal notes – all changes will be seen only by you.

Personal tabs can be accessed anytime from any device, even offline.
Learn more »
Give kudos to tab author, rate the tab!
1 2 3 4 5
comments
print report bad tab
guest
You may want to rate the tab now too:
select rating
Wanna post a correction for this tab? Suggest correction