Oops, an error
Loading. Please wait.

Wicked Games Tab

68,349 views 189 this week
3 commentsread comments
1 2 3 4 5
excellent!
x 13
add to favorites
launch autoscroll
font size
0
reset
how to read this tab
guitar tuner
Tab Pro tools
  • play this tab
  • loop segment
  • change instrument
  • show fretboard
  • metronome
×
Best way to learn
"Wicked Games"
Autoscroll
slow
fast
+/-
esc
set tempo
stop
Difficulty
novice
-Tabbed by Jefrey Judes-

99% sure it's perfect
Play tab throughout song, strum if you really want to.

   (1)     (2)     (3)     (4)
      
e|--2-------2-------2-------3---------------------------|
B|--3-------3-------3-------3---------------------------|
G|--4-------4-------4-------4---------------------------|
D|--4-------4-------4-------5---------------------------|
A|--2-------0-------x-------5---------------------------|
E|--x-------x-------3-------3---------------------------|
(Am Bar2)   -       -   (E Bar 3) 
   Bm      Bm7    Bmsus6    G         


   [1]               [2]               
e|--------------2~------------------2~------------------|
B|-----------3-------------------3----------------------|
G|--------4-------------------4-------------------------|
D|-----4-------------------4----------------------------|
A|--2---------------2---0-------------------------------|
E|------------------------------------------------------|

    [3]                   [4]
e|------2---------------------------------3~------------|
B|---------3---------------------------3----------------|
G|------------4-----4~--------------4-------------------|
D|---------------4---------------5----------------------|
A|--0---------------------0-----------------------------|
E|------3---------------------3-------------------------|


Repeat as necessary. Enjoy :)

[Legend]
~ Vibrato (Appears on last note of each chord)
comments
print report bad tab
3 comments total.
+7 reply
MischaFD wrote on January 1 2012, 01:03 pm

This is awesome, but I think 3 is actually

 
e|------2---------------------------------3~------------|
B|---------3---------------------------3----------------|
G|------------4-----4~--------------4-------------------|
D|---------------4---------------5----------------------|
A|--0---------------------0-----------------------------|
E|------4---------------------3-------------------------|

0 reply
JefreyJ wrote on April 6 2013, 03:18 pm

MischaFD is actually right. Also, Bsus6 was a typo and isn't a real chord at all; the chord is Bm/G#. Unfortunately, I didn't have an account at the time, so I can't edit anymore. Sorry about that, and thanks for the correction.

0 reply
Eedn wrote on September 7 2014, 04:04 am

Well based off of the acoustic version and many live versions, it's actually
e|------2---------------------------------3~------------|
B|---------3---------------------------3----------------|
G|------------4-----4~--------------4-------------------|
D|---------------4---------------5----------------------|
A|--0---------------------------------------------------|
E|------3-----------------4---3-------------------------|
Instead of
e|------2---------------------------------3~------------|
B|---------3---------------------------3----------------|
G|------------4-----4~--------------4-------------------|
D|---------------4---------------5----------------------|
A|--0---------------------0-----------------------------|
E|------3---------------------3-------------------------|

I want to post or [tab]
guest
You may want to rate the tab now too:
select rating
Please do not post tabs as comments. Select "correction" instead!