Oops, an error
Loading. Please wait.

Hold It Kid Your Heart Just Skipped A Beat Tab

version 2
version 2

Whole song

  • This is the complete version, shows chord transiti... Show more
46 views 1 this week
1 commentread comment
1 2 3 4 5
x 3
add to favorites
launch autoscroll
font size
0
reset
how to read this tab
guitar tuner
Autoscroll
slow
fast
+/-
esc
set tempo
stop
Help us to improve Ultimate-Guitar.com Take our survey!
×
Author
Difficulty
About this tab version
This is the complete version, shows chord transitions for the whole song, and corrected tuning and capo errors of previous version. Was this info helpful? Yes No
Song: Hold It, Kid (Your Heart Just Skipped A Beat)
Artist: The Weeks
Album: Comeback Cadillac
TG# by: Erik Nielsen

Beautiful song, just so depressing. Fantastic nevertheless.
The strumming/picking and rhythmic pattern varies, but is pretty simple and easy to pick up!

Chords:
      Fm     G#    Eb    C#   Bbm
e|-----1-----4-----------------1-----|
B|-----1-----4-----8-----6-----2-----|
G|-----1-----5-----8-----6-----3-----|
D|-----3-----6-----8-----6-----3-----|
A|-----3-----6-----6-----4-----1-----|
E|-----1-----4-----------------------|

------------------------------------------------------------------------------------------------------

Intro/Verse 1

     Fm              G#            Fm       Eb
e|----8----------------------------8-----------------------------|
B|----8h9------------13------------8h9------8--------------------|
G|----8h10-----------13------------8h10-----8--------------------|  x2
D|----8h10-----------13------------8h10-----8--------------------|
A|--8---------8--10--11--11--10--8----------6------6---6/8-------|
E|---------------------------------------8------6h8--h8----------|
     Fm              G#          Fm         Eb
e|----8--------------------------8-------------------------------|
B|----8h9------------13----------9----------8--------------------|
G|----8h10-----------13----------10---------8--------------------|
D|----8h10-----------13----------10---------8--------------------|
A|--8---------8--10--11--11--10--8----------6------6-------------|
E|---------------------------------------8------6h8--h8--6--3h4--|

------------------------------------------------------------------------------------------------------ 

Solo 1: (during Verse 2)
e|-------------------8/13~--13--11--9-----------8------|
B|--9~---11-11/13~----------------------13--11--9------|
G|-------------------8/13~--13--12--10----------10-----| 
D|--10~--11-11/13~----------------------13--11--10-----|
A|-----------------------------------------------------|
E|-----------------------------------------------------|

e|----------------13--11-----------------|
B|--11-11/13~--~------------13--11-------|
G|----------------13--12-----------------| 
D|--11-11/13~---------------13--11-------|
A|---------------------------------------|
E|---------------------------------------|

------------------------------------------------------------------------------------------------------

Solo 2: (after Chorus 2)(Slide guitar and Electric Guitar play simultaneously)
Slide Guitar
e|--6/13~--16\8h9~--13\6h8~--11\6--8--6-------------|
B|---------------------------------------8h9--------|
G|--------------------------------------------------|
D|--------------------------------------------------|
A|--------------------------------------------------|
E|--------------------------------------------------|

e|--6/13~--16\9~--13\8~--11\6--8--6-------------|
B|-----------------------------------8h9-11p9---|
G|----------------------------------------------|
D|----------------------------------------------|
A|----------------------------------------------|
E|----------------------------------------------|

Electric Guitar
e|--6--8--9---11--13--15--16--18--20--18--16--15--13--9---11-9--11-9---------|
B|---------------------------------------------------------------------------|
G|--6--8--10--12--13--15--17--18--20--18--17--15--13--10--12-10-12-10--------|
D|---------------------------------------------------------------------------|
A|---------------------------------------------------------------------------|
E|---------------------------------------------------------------------------|

e|--6--8--9---11--13--15--16--18--20--18--16--15--13--9---11-9--8-(6)--------|
B|---------------------------------------------------------------------------|
G|--6--8--10--12--13--15--17--18--20--18--17--15--13--10--12-10-8-(6)--------|
D|---------------------------------------------------------------------------|
A|---------------------------------------------------------------------------|
E|---------------------------------------------------------------------------|

------------------------------------------------------------------------------------------------------

Solo 3: (during Verse 3)
e|--(4)--6-6/8----/13--13--11--15--9--9\---8--6--4-----|
B|-----------------------------------------------4-----|
G|--(5)--6-6/8-8--/13--13--12--15-----10\--8--6--5-----|
D|-----------------------------------------------6-----|
A|-----------------------------------------------6-----|
E|-----------------------------------------------4-----|

e|--4-4---6---13---11--9---8--6--4-----|
B|--4-4--------------------------4-----|
G|--5-5---6---13---12--10--8--6--5-----|
D|-------------------------------------|
A|-------------------------------------|
E|-------------------------------------|

------------------------------------------------------------------------------------------------------

Chords

Intro/Verse 1
Fm
Well it gets cold in here
G#
These years they pass with fear
Fm                           Eb
Your daddy don't love you anymore.

Fm
The fear it comes and goes
G#
Money goes up their nose
Fm                           Eb
Your mama don't live here anymore.

Chorus 1
G#                                   Fm
Just dry your cheeks girl, wipe your eyes
                                C#
Just close the door, it'll be alright
                             Eb 
Your daddy's tripping with a needle in his arm.

G#                                   Fm
Just dry your cheeks girl, wipe your eyes
                                C#
Just close the door, it'll be alright
                             Eb 
Your daddy's tripping with a needle in his arm.

Verse 2*
Fm
The belt it wraps so tight 
G#
The pain around your life
Fm                           Eb
Your mama don't live here anymore.

Fm
These tears they come at night
G#
You'll live and learn to fight
Fm                           Eb
Your daddy don't love you anymore.

Chorus 2
G#                                   Fm
Just dry your cheeks girl, wipe your eyes
                                C#
Just close the door, it'll be alright
                             Eb 
Your daddy's tripping with a needle in his arm.

G#                                   Fm
Just dry your cheeks girl, wipe your eyes
                                C#
Just close the door, it'll be alright
                             Eb 
Your daddy's tripping with a needle in his arm.

Bridge/Solo 2
Bbm  C#  G#  Eb
Bbm  C#  G#  Eb

Verse 3*
Fm
Your life, it comes with pain
G#
Money goes in their veins
Fm                           Eb
Your mama don't live here anymore.

Fm
It comes and goes so far
G#
Looking into their arms
Fm                           Eb
Your daddy don't love you anymore

Chorus 3
G#                                   Fm
Just dry your cheeks girl, wipe your eyes
                                C#
Just close the door, it'll be alright
                             Eb 
Your daddy's tripping with a needle in his arm.

G#                                   Fm
Just dry your cheeks girl, wipe your eyes
                                C#
Just close the door, it'll be alright
                             Eb 
Your daddy's tripping with a needle in his arm.

G#                                   Fm
Just dry your cheeks girl, wipe your eyes
                                C#
Just close the door, it'll be alright
                             Eb 
Your daddy's tripping with a needle in his arm.
G#
Oh-Oh

------------------------------------------------------------------------------------------------------

* = Verse contains solo on lead guitar

h - hammer on 
p - pull off 
b - bend string up
r - release bend
/ - slide up
\ - slide down
Suggest correction
Give kudos to tab author, rate the tab!
1 2 3 4 5
comments
print report bad tab
1 comment total.
0 reply
LiveRur 658 Sep 18, 2016 09:21 AM

Such a beautiful song and such a great work, man!
WOW :)

guest
You may want to rate the tab now too:
select rating
Wanna post a correction for this tab? Suggest correction