Oops, an error
Loading. Please wait.

I Was Made For Sunny Days Bass Tab

2,890 views 1 this week
no commentswrite comment
1 2 3 4 5
2 more votes to show rating
add to favorites
launch autoscroll
font size
0
reset
guitar tuner
Autoscroll
slow
fast
+/-
esc
set tempo
stop
Help us to improve Ultimate-Guitar.com Take our survey!
×
Author
Difficulty
-------------------------------------------------------------------------------
                             I WAS MADE FOR SUNNY DAYS- The Weepies
-------------------------------------------------------------------------------

Tabbed By : WibbleWobble
e-mail: organisedchaos@talktalk.net

Tuning: standard EADG

Not really hard,  but play in a shuffle style high tempo

 MAIN RIFF:  play this bit eight times: 00.00 - 00.21

G|------------------------------------------------------------------------------|
D|---6----------6---------------------------------------------------------------|
A|-----------6------------------------------------------------------------------|
E|-4---4-4----------------------------------------------------------------------|

then run up to chorus: 00:21 - 00:30

G|---------------------------------------10-8---8-----------------------------|
D|---6------------6----6------6--6-7-8--------10---10-8-----------------------|
A|------------6-----------6-----------------------------8---------------------|
E|-4----4-4-----4----4-4------------------------------------------------------|

CHORUS:  00:30 - 00:46

G|----------------------------------------------------------------------------|
D|----------------------------------------------------------------------------|
A|---8-6-----6----------4-3---------------------------------------------------|
E|-6-----8----8-6---4-2-------------------------------------------------------|


Back to main riff but at 00.59 there's a real neat bit thrown in:

G|-14h12----------------------------------------------------------------------|
D|-------14h12----------------------------------------------------------------|
A|---------------14h12--------------------------------------------------------|
E|----------------------10h8--------------------------------------------------|

Play main riff x 8
Repeat run up to chorus x 1
Repeat chorus x 1

then the bridge: 01:26 - 01:55

G|----------------------------------------------------------------------------|
D|-6-6-------------------4--6-6-------------------4---------------------------|
A|-----6-6-6-4-4-6-6-4h6--------6-6-6-4-4-6-6-4h6----4---6--4---6--4-4-4-4----|
E|-----------------------------------------------------6------6---------------|

G|----------------------------------------------------------------------------|
D|---------3-3-3-3-5-5-5-3-5-6~-----------------------------------------------|
A|-6-6-6-6--------------------------------------------------------------------|
E|----------------------------------------------------------------------------|

repeat main riff x 8
repeat run up to chorus x 1
play out to chorus
Suggest correction
Give kudos to tab author, rate the tab!
1 2 3 4 5
comments
print report bad tab
guest
You may want to rate the tab now too:
select rating
Wanna post a correction for this tab? Suggest correction