Oops, an error
Loading. Please wait.

Please Speak Well Of Me Chords

version 1
version 1

Whole song

11,061 views 15 this week
2 commentsread comments
1 2 3 4 5
1 last vote to show rating
add to favorites
launch autoscroll
font size
0
reset
transpose
0
reset
display chords
guitar tuner
Autoscroll
slow
fast
+/-
esc
set tempo
stop
Help us to improve Ultimate-Guitar.com Take our survey!
×
Author
Difficulty
novice
"Please Speak Well Of Me"
by the Weepies

Original Recording is in the Key of A#.
The following tab has been transposed to the key of C.
If you want to play in A#, just move your capo to the 10th fret.
Each line is four beats except when noted by an "|" symbol.

Tab for Verse:
  C                 F        C                 F
|---0-0---0-0---0-0---1-1-|---0-0---0-0---0-0---1-1-|
|---1-1---1-1---1-1---1-1-|---1-1---1-1---1-1---1-1-|
|---0-0---0-0---0-0---2-2-|---0-0---0-0---0-0---2-2-|
|-------------------------|-------------------------|
|-3-----2-----0-----------|-3-----2-----0-----------|
|-------------------1-----|-------------------1-----|

Tab for Chorus:
  Em           Am            Em           Am          
|----0-0---0-0---0-0---0-0-|----0-0---0-0---0-0---0-0-|
|----0-0---0-0---1-1---1-1-|----0-0---0-0---1-1---1-1-|
|----0-0---0-0---2-2---2-2-|----0-0---0-0---2-2---2-2-|
|----2-2---2-2---2-2-2-----|----2-2---2-2---2-2-2-----|
|--------2-----0-----------|--------2-----0-----------|
|--0-----------------------|--0-----------------------|


C    F | C    F 

C              F
I've been away 
C                F
a year and a day
C                            F
You recognize love after the fact
C                                     F
You did what you did and that was that

Em        Am
Don't say words 
Em             Am
that you don't mean
Em             G                     | C     F | C     F
When I'm gone, please speak well of me

C                F
Looking back now
C                            F
I only wish I had been kinder
      C                               F
Did I ever know love, did I ever know love?
C                              F
And could I have been blinder?


Em        Am
Don't say words 
Em             Am
that you don't mean
Em             G                     | C     F | C     F
When I'm gone, please speak well of me
Em         Am
Don't hold back 
Em       Am
all your love 
F          | G
for someday, for someday

C                         F
I would say that I'm sorry 
C                       F
if it would do any good
C                                        F
But to never regret means you have to forget
C                              F
and I don't think that I could 

Em        Am
Don't say words 
Em             Am
that you don't mean
Em           | Em
When I'm gone, When I'm gone, 
Em             G                      | C    F
When I'm gone, please speak well of me

C    F | C    F | C   F | C
Suggest correction
Give kudos to tab author, rate the tab!
1 2 3 4 5
comments
print report bad tab
2 comments total.
0 reply
bubbleyum1992 21 Jun 02, 2013 06:27 PM

I think the EM at the end of the chorus should be an F.

0 reply
gschramm 44 Aug 21, 2015 10:22 PM

I think the verse is this:

C F C F
|---0-0---0-0---0-0---1-1-|---0-0---0-0---0-0---1-1-|
|---1-1---1-1---1-1---1-1-|---1-1---1-1---1-1---1-1-|
|---0-0---0-0---0-0---2-2-|---0-0---0-0---0-0---2-2-|
|-------------------------|-------------------------|
|-3-----2-----0-----------|-3-----2-----0-----------|
|-------------------1----3|-------------------1----3|

guest
You may want to rate the tab now too:
select rating
Wanna post a correction for this tab? Suggest correction