Oops, an error
Loading. Please wait.

Somebody Loved chords

version 2
version 2

Whole song

  • Includes fingerpicking and includes corrected chords and song structure.

Interactive

328 views 6 this week
no commentswrite comment
1 2 3 4 5
1 last vote to show rating
add to favorites
×
Save as Personal and add changes to this tab that will be seen only by you. Learn more ›
×
You can save this tab as Personal to edit and correct it or add notes. All changes will be seen only by you. Learn more »
launch autoscroll
font size
0
reset
transpose
0
reset
display chords
guitar tuner
edit
Autoscroll
slow
fast
+/-
esc
set tempo
stop
Author
Difficulty
About this tab version
Includes fingerpicking and includes corrected chords and song structure. Was this info helpful? Yes No
Strumming
There is no strumming pattern for this song yet. and get +5 IQ
"Somebody Loved" -The Weepies 
This is the general style of the fingerpicking. It follows the chords.
It stays about the same throughout the entire song.

[Fingerpicking]

[Intro and Verse]

E|--0-----------------0-----------0-----------3-----
B|--------3-----1--------1--0--------0--3--------3--
G|-----0-----0-----2-----------0-----------0--------
D|--------------------2-----------------------------
A|--3-----3-----0-----------2-----------------------
E|--------------------------------------3-----------

[Chorus Fingerpicking]

E|--------------1-----------------------3-------------0-----------------0-----------0-----------3-----
B|--1--------------1--------3--------------3----------------3-----1--------1--0--------0--3--------3--
G|-----2--------------2--------0--------------0----------0-----0-----2-----------0-----------0--------
D|--------3--------------3--------0--------------0----------------------2-----------------------------
A|--3--------3--3--------------------0----------------3-----3-----0-----------2-----------------------
E|--------------------------3-----------3-------------------------------------------------3-----------


[Chords]

[Intro]
C Am Em G
C Am Em G

[Verse]
C              Am        Em    G
Rain turns the sand into mud 
C              Am         Em   G
Wind turns the trees into bone 
C             Am       Em      G
Stars turning high up above 

[Chorus]
F           G             C      Am    Em   G
You turn me into somebody loved. 


[Verse]
  C              Am           Em     G
Nights when the heat had gone out 
  C          Am      Em      G
We danced together alone 
  C               Am          Em       G
Cold turned our breath into clouds 
 C        Am       Em               G
We never said what we were dreaming of 

[Chorus]
    F             G             C      Am   F   G
But you turned me into somebody loved. 


[Bridge]

  F                 G       C
Someday when we're old and worn
 Dm        C        F         G
Like two softened shoes
F                 G         C
I will wonder on how I was born 
     Dm      C         F         G
The night I first ran away from you. 


[Verse]
         C             Am         Em       G
Now my feet turn the corner back home 
 C              Am       Em     G
Sun turns the evening to rose 
  C            Am      Em       G
Stars turning high up above 

[Chorus]
 F          G
You turn me into 
 C    Em    Am
You turn me into 
 F          G             C      Am
You turn me into somebody loved. 
F    G        C      Am
     Somebody loved.
F    G        C      Am
Who  Somebody loved.

F    G    C

            
            
Suggest correction
Creating personal tab
Creating personal tab
You can edit any tab online and save it as your Personal.

You can edit, replace or remove any tab part or add personal notes – all changes will be seen only by you.

Personal tabs can be accessed anytime from any device, even offline.
Learn more »
Give kudos to tab author, rate the tab!
1 2 3 4 5
comments
print report bad tab
guest
You may want to rate the tab now too:
select rating
Wanna post a correction for this tab? Suggest correction