Oops, an error
Loading. Please wait.

Audrey tab

183 views 1 this week
no commentswrite comment
1 2 3 4 5
3 more votes to show rating
add to favorites
×
Save as Personal and add changes to this tab that will be seen only by you. Learn more ›
×
You can save this tab as Personal to edit and correct it or add notes. All changes will be seen only by you. Learn more »
launch autoscroll
font size
0
reset
how to read this tab
guitar tuner
edit
Autoscroll
slow
fast
+/-
esc
set tempo
stop
intro and verse
   C                G                D                A
e|-------------------------------------------------------------------------|
B|-------------------------------------------------------------------------|
G|-5-5-------------------------------7-7-----------------------------------|
D|-5-5-----5-5-7-5--5-5--------------7-7-----7-7-9-7--7-7------------------|
A|-3-3-5-7----------5-5-----5-5-7-5--5-5-7-9----------7-7-----7-7-9-7------|
E|------------------3-3-5-7---------------------------5-5-7-9--------------|

   C                D    C    G    F    Bflat
e|--------------------------------------------|   This whole pattern is
B|--------------------------------------------|   repeated 5 times. 1 for
G|-5-5--------------7----5--------------3-----|   intro, and 4 with singing
D|-5-5-----5-5-7-5--7----5----5----3----3-----|   
A|-3-3-5-7----------5----3----5----3----1-----|
E|----------------------------3----1----------|

Verse 1 
C                                    G
These black and white nights fill my mind like a dream from a movie scene, 
               D                                           A
I'm on screen, Everbodies looking at me I don't know why. Stop looking I 
                    C                                              DCGFBflat
can feel your eyes. How am I supposed to shine this bright every night?

The world passes in a blur it don't occur to me to search anywhere but here
for fear of everything and anything and nothing at the same time, I've got
too much and not enough on my mind. How am I s'ppossed to navigate life
alone?

Then I see your face and everything falls into place and i know I know
nothing but it don't mean nothing, cos you've got something beautiful,
falling from you like a waterfall. Now I've seen your eyes how am i
suppossed to look at any one else?

But life aint beautiful in fact it's awful cold, when your sitting all
alone and I know that your gone forever and I missed ya. I'd give my life
for a chance just to kiss ya. Audrey girl you know your spell transcends
time.

Chorus just strummed.
      F                 C                G
e|-------------------------------------------------------------------------|
B|-------------------------------------------------------------------------|
G|----------------------5------5---5---5-----------------------------------|
D|----3------3---3---3--5------5---5---5-5------5---5---5-5-5---5-5--5--5--|
A|----3------3---3---3--3------3---3---3-5------5---5---5-5-5---5-5--5--5--|
E|----1------1---1---1-------------------3------3---3---3-3-3---3-3--3--3--|

  Cos audrey life don't ever turn out beautiful, (turn out beautiful)
  And Audrey life don't never seem to be going right, (going right)
  Cos Audrey life don't ever turn out beautiful, (turn out beautiful)
  But Audrey I'd find beauty at your si---------de
  Cos Audrey life don't ever turn out beautiful, (turn out beautiful)
  And Audrey my light don't shine so bright, (shine so bright)
  Cos Audrey life don't ever turn out beautiful, (turn out beautiful)
  But Audrey I see beauty in your eye-------------s

Verse 2

Well I'm lost in a world I don't know and everywhere I go I see the same
show, there's a girl with a mini-skirt, a guy with a dark shirt. Secret
betrayed by her knee dirt. How am I suppossed to find a princess in all
this mess?

We keep searching for a question when the answers right in front of us,
we're blinded by our arrogance, act like an animal then that's what we'll
be called, maybe we're all born apes after all. With man kind you can't
help but become dissillussioned.

Audrey your my light in the darkest night keep me hoping heart open that
i'll find, a better place and some peace of mind. Maybe I can find a girl
like you to call mine. Audrey girl you shine so much brighter the sun.

When I was young I didn't care but now I feel I've gotta share, gotta bare
my soul to a jury of my peers, can you hear my fear? I'm distraught but I
still can't shed a tear. Audrey I'm so tired I just can't cry no more.


Repeat chorus and end.

            
            
Suggest correction
Creating personal tab
Creating personal tab
You can edit any tab online and save it as your Personal.

You can edit, replace or remove any tab part or add personal notes – all changes will be seen only by you.

Personal tabs can be accessed anytime from any device, even offline.
Learn more »
Give kudos to tab author, rate the tab!
1 2 3 4 5
comments
print report bad tab
guest
Wanna post a correction for this tab? Suggest correction