Oops, an error
Loading. Please wait.

Hideous Heart Tab

82 views 27 this week
no commentswrite comment
1 2 3 4 5
3 more votes to show rating
add to favorites
launch autoscroll
font size
0
reset
how to read this tab
guitar tuner
Autoscroll
slow
fast
+/-
esc
set tempo
stop
Help us to improve Ultimate-Guitar.com Take our survey!
×
Author
Difficulty
novice
Same picking pattern used throughout the song. Very waltz-like rhythm.
Just watch out for the Dm bass notes - they are either D or A, you'll see the variations below!

[Intro]
    Am
e|----------------|
B|----1-1---1-1---|
G|----2-2---2-2---|
D|--------2-------|
A|--0-------------|
E|----------------|

[Verse]
    Am           E
e|----------------------------|
B|----1-1---1-1---0-0---0-0---|
G|----2-2---2-2---1-1---1-1---|
D|--------2-----------2-------|
A|--0-----------2-------------|
E|----------------------------|

Am
Transfixed on a sin

It's always watching

It shivers my skin
                        E
I cannot shake from its sight
Am
Translucent and blue

Shades never blinking

Fueled by booze
                         E
Gets me to thinking it's right

[Chorus]
    Dm          Am          E           Am
e|------------------------------------------------------|
B|----3-3---3-3---1-1---1-1---0-0---0-0---1-1---1-1-----|
G|----2-2---2-2---2-2---2-2---1-1---1-1---2-2---2-2-----|
D|--0-----------------2-----------2-----------2---------|
A|--------0-----0-----------2-----------0---------------|
E|------------------------------------------------------|

e|------------------------------------------------------|
B|----3-3---3-3---1-1---1-1---0-0---0-0---1-1---1-1-----|
G|----2-2---2-2---2-2---2-2---1-1---1-1---2-2---2-2-----|
D|--0-----0-----------2-----------2-----------2---------|
A|--------------0-----------2-----------0---------------|
E|------------------------------------------------------|

    Dm                     Am
The beating is bursting my brain
E                  Am
Punishing, pulling apart
    Dm                     Am
The pounding, it drives me insane
       E                    Am
Please silence this hideous heart

[Verse]
    Am           E
e|----------------------------|
B|----1-1---1-1---0-0---0-0---|
G|----2-2---2-2---1-1---1-1---|
D|--------2-----------2-------|
A|--0-----------2-------------|
E|----------------------------|

Am
The madness it grins

Burns me like matches

Blood running thin
                    E
Haunting me day and night
Am
Shadows like hymns

From hell and ashes

Calling me, calling me
               E
'Bury the evil eye'

[Chorus]
    Dm          Am          E           Am
e|------------------------------------------------------|
B|----3-3---3-3---1-1---1-1---0-0---0-0---1-1---1-1-----|
G|----2-2---2-2---2-2---2-2---1-1---1-1---2-2---2-2-----|
D|--0-----0-----------2-----------2-----------2---------|
A|--------------0-----------2-----------0---------------|
E|------------------------------------------------------|

e|------------------------------------------------------|
B|----3-3---3-3---1-1---1-1---0-0---0-0---1-1---1-1-----|
G|----2-2---2-2---2-2---2-2---1-1---1-1---2-2---2-2-----|
D|--0-----------------2-----------2-----------2---------|
A|--------0-----0-----------2-----------0---------------|
E|------------------------------------------------------|

Dm                    Am
Drumming erupts in my brain
E                  Am
Punishing, pulling apart
    Dm                     Am
The pounding, it drives me insane
       E                    Am
Please silence the hideous heart

[Bridge]
    F           Dm          Am          C           E           E
e|---------------------------------------------------------------------------|
B|----1-1---1-1---3-3---3-3---1-1---1-1---1-1---1-1---0-0---0-0---0-0---0-0--|
G|----2-2---2-2---2-2---2-2---2-2---2-2---0-0---0-0---1-1---1-1---1-1---1-1--|
D|--------3-----0-----0-----------2-----------2-----------2-----------2------|
A|--3-----------------------0-----------3-----------2-----------2------------|
E|---------------------------------------------------------------------------|

    F           Dm          Am          C           E           E
e|---------------------------------------------------------------------------|
B|----1-1---1-1---3-3---3-3---1-1---1-1---1-1---1-1---0-0---0-0---0-0---0-0--|
G|----2-2---2-2---2-2---2-2---2-2---2-2---0-0---0-0---1-1---1-1---1-1---1-1--|
D|--------3-----0-----------------2-----------2-----------2-----------2------|
A|--3-----------------0------0----------3-----------2-----------2------------|
E|---------------------------------------------------------------------------|

[Chorus]
    Dm          Am          E           Am
e|------------------------------------------------------|
B|----3-3---3-3---1-1---1-1---0-0---0-0---1-1---1-1-----|
G|----2-2---2-2---2-2---2-2---1-1---1-1---2-2---2-2-----|
D|--0-----0-----------2-----------2-----------2---------|
A|--------------0-----------2-----------0---------------|
E|------------------------------------------------------|

Dm                    Am
Drumming erupts in my brain
E                  Am
Punishing, pulling apart
    Dm                     Am
The pounding, it drives me insane
       E                    Am
Please silence the hideous heart
E                   Am
Silence the hideous heart
E                      Am
Silence the hideous... heart

[Outro]
    Am
e|----------------|
B|----1-1---1-1---|
G|----2-2---2-2---|
D|--------2-------|
A|--0-------------|
E|----------------|
Suggest correction
Give kudos to tab author, rate the tab!
1 2 3 4 5
comments
print report bad tab
guest
You may want to rate the tab now too:
select rating
Wanna post a correction for this tab? Suggest correction