Oops, an error
Loading. Please wait.

Sleepy Little Town tab

version 1
version 1

Whole song

Interactive

9,098 views 27 this week
1 commentread comment
1 2 3 4 5
x 5
add to favorites
×
Save as Personal and add changes to this tab that will be seen only by you. Learn more ›
×
You can save this tab as Personal to edit and correct it or add notes. All changes will be seen only by you. Learn more »
launch autoscroll
font size
0
reset
how to read this tab
guitar tuner
edit
Autoscroll
slow
fast
+/-
esc
set tempo
stop
The White Buffalo "Sleepy Little Town"

Capo 3 Standard tuning

My First tab, enjoy!


Intro: C G C G C G D D G G

      C                         G                         repeat x 3
|--------------------------------|
|-------1---------0-----------0--|
|-------------0---------0--------|
|--0h2-----2---------0-----------|
|-------3------------------2-----|
|-----------------3--------------|

     D                                  D                  repeat x 2
|---------------------------------------|
|--3-------------3-----3-------------3--|
|----------2-------------------2--------|
|------0-------------------0------------|
|--0----------0--------0----------0-----|
|---------------------------------------|

     G                           G                         repeat x 2
|----------------------------------|
|--0----------0----0------------0--|
|--------0----------------0--------|
|-----0----------------0-----------|
|----------2-----------------2-----|
|--3---------------3---------------|


          C         G      D          G
Well its gold and green kerosene
       C         G                  D
Far beyond the glow of the city lights
         C              G             D              G
You can feel it in the air you can catch it if you dare
      C            G          D
And all you gotta do is wait around
  D                                         G
For you and I in this sleepy little town

Intro

Slow like a dream lost in memories
Locomotion hauls to a grind
I get lost in the blue of a lazy afternoon
Bluer than my little boys eyes
For you and I in this sleepy little town

Intro

Sun keeps pouring in
With withered hands and leathered skin
Get up boy there's work to be done
(G in break)
Untill the sun goes down on you and I
You and I in this sleepy little town

G

Intro

G
For you and I in this sleepy little town

End on G

            
            
Suggest correction
Creating personal tab
Creating personal tab
You can edit any tab online and save it as your Personal.

You can edit, replace or remove any tab part or add personal notes – all changes will be seen only by you.

Personal tabs can be accessed anytime from any device, even offline.
Learn more »
comments
print report bad tab
1 comment total.
+1 reply
cmoney25 41 Feb 28, 2014 08:13 PM

I love how you added the tab then copied and pasted my chords. Do it yourself if you're going to down rate mine :)

guest
Wanna post a correction for this tab? Suggest correction