Oops, an error
Loading. Please wait.

House Of The Rising Sun chords

version 3
version 3

Whole song

  • Includes the solo, doesn't require a capo, and the... Show more
2,661 views 33 this week
no commentswrite comment
1 2 3 4 5
x 5
add to favorites
×
Save as Personal and add changes to this tab that will be seen only by you. Learn more ›
×
You can save this tab as Personal to edit and correct it or add notes. All changes will be seen only by you. Learn more »
launch autoscroll
font size
0
reset
transpose
0
reset
display chords
guitar tuner
edit
Autoscroll
slow
fast
+/-
esc
set tempo
stop
Author
Difficulty
About this tab version
Includes the solo, doesn't require a capo, and the timing is correct relative to the lyrics. Was this info helpful? Yes No
Strumming
There is no strumming pattern for this song yet. and get +5 IQ
Chords used:
    
    |--1--       |--1--      |--4--      |--1--     |--3--      |--4--
    |--1--       |--1--      |--4--      |--3--     |--5--      |--6--
Fm: |--1--  Fm7: |--1--  Ab: |--5--  Bb: |--3--  C: |--5--  Db: |--6--
    |--3--       |--1--      |--6--      |--3--     |--5--      |--6--
    |--3--       |--3--      |--6--      |--1--     |--3--      |--4--
    |--1--       |--1--      |--4--      |-----     |-----      |-----



There is a house in Charming town 
     Fm       Ab     C
They call the rising sun
         Fm       Ab      Bb            Db
And it's been the ruin of many a poor girl 
    Fm     C        Fm/Fm7/Fm
And me, oh god, I'm one

   Fm           Ab    Bb      
If I'd listened to my mama 
     Fm     Ab     C
Lord I'd be home today
    Fm    Ab        Bb     
But I was young and foolish 
           Fm        C   Fm         
A handsome rider led me astray

   Fm   Ab      Bb      Db
Go tell my baby sister
      Fm      Ab      C
Never do what I have done
   Fm       Ab       Bb        Db
To shun the house in Charming town
     Fm       C       Fm
They call the rising sun

   Fm     Ab      Bb      Db
My mother she's a tailor
    Fm       Ab       C
She sewed my new blue jeans
   Fm       Ab       Bb        Db
My sweetheart he's a rambler 
        Fm       C     Fm
Lord he rides an old machine


 SOLO: 

|---------------------------------------------------------
|----------------------------------------6----------------
|----------------3/5---3\1/3\1---1---5/8---8\5--5--3/5----
|------3---3/6-6---------------3--------------------------
|-1b3-----------------------------------------------------
|---------------------------------------------------------

|---------6-8-8/13--13-11---6/8\6/8---6\4--------------------------
|-------6---------------------------------6---6/9-6-6--------------
|-5/8-8-------------------------------------------------3/5\3\1----
|---------------------------------------------------------------3--
|------------------------------------------------------------------
|------------------------------------------------------------------

|---------------1-------------------------------------------
|---------------1-------------------------------------------
|---------------1-------------------------------------------
|---------------3-------------------------------------------
|-1h3p1---1-----3-------------------------------------------
|-------4---4---1-------------------------------------------


        Fm   Ab      Bb      Db
Now the only thing a rambler needs
     Fm       Ab    C
is a suitcase and a gun
    Fm   Ab    Bb       Db
The only time he's satisfied
   Fm        C      Fm
is when he's on the run

   Fm        Ab      Bb      Db
He fills his chamber up with lead 
    Fm        Ab      C
And takes his pain to town
     Fm       Ab      Bb          Db
Only pleasure he gets out of life
   Fm           C        Fm
Is bringing another man down


INTERLUDE:

|-----------------3------------------------------------
|----------4------3------------------------------------
|--1-------5------3----------6\------------------------
|--3-------6------3--------6---------------------------
|--3-------6------1------4-----------------------------
|--1----3--4-------------------------------------------

|-------------------------3----------------------------
|----------4----------5--------------------------------
|--1-------5------------5------------------------------
|--3-------6--------5----------------------------------
|--3-------6------3------------------------------------
|--1-------4-------------------------------------------

|-----------------3------4-----------------------------
|----------4------3------6-----------------------------
|--1-------5------3------6-----------------------------
|--3-------6------3------6-----------------------------
|--3-------6------1------4-----------------------------
|--1----3--4-------------------------------------------

|----------3-------------------------------------------
|----------5-------------------------------------------
|--1-------5-------1-----------------------------------
|--3-------5-------3-----------------------------------
|--3-------3-------3-----------------------------------
|--1---------------1-----------------------------------

         Fm     Ab      Bb        Db
He's got one hand on the throttle
    Fm     Ab     C
the other on the brake
         Fm     Ab      Bb       Db
And he's riding back to Redwood
   Fm      C        Fm
to own his fathers' stake


Fm7/Fm     Fm7/Fm

    Fm    Ab      Bb         Db
And me, I wait in Charming town
    Fm      Ab       C (arpeggiate)
The game my love has won
        Fm      Ab      Bb          Db
And I'm staying here to end my life
     Fm      C       Fm (arpeggiate)
Down in the rising sun


|-------------------3------4---------------------------
|----------4--------3------6---------------------------
|--1-------5--------3------6---------------------------
|--3-------6--------3------6---------------------------
|--3-------6-----3--1------4---------------------------
|--1----3--4-------------------------------------------

|----------/3------------------------------------------
|----------/5------------------------------------------
|--1-------/5------------------------------------------
|--3-------/5------------------------------------------
|--3-------/3------------------------------------------
|--1---------------------------------------------------


        Fm      Ab      Bb      Db
Now I'm staying here to end my life 
Fm         C       Fm
Down in the rising sun

            
            
Suggest correction
Creating personal tab
Creating personal tab
You can edit any tab online and save it as your Personal.

You can edit, replace or remove any tab part or add personal notes – all changes will be seen only by you.

Personal tabs can be accessed anytime from any device, even offline.
Learn more »
comments
print report bad tab
guest
You may want to rate the tab now too:
select rating
Wanna post a correction for this tab? Suggest correction