Oops, an error
Loading. Please wait.

300 Mph Torrential Outpoor Blues Tab

13,243 views 9 this week
4 commentsread comments
1 2 3 4 5
worth learning
x 10
add to favorites
launch autoscroll
font size
0
reset
how to read this tab
guitar tuner
Tab Pro tools
  • play this tab
  • loop segment
  • change instrument
  • show fretboard
  • metronome
×
Best way to learn
"300 Mph Torrential Outpoor Blues"
Autoscroll
slow
fast
+/-
esc
set tempo
stop
Contributor
Difficulty
intermediate
Elpantalla@yahoo.com for any questions.

Main Riff


E|----------------|
B|----------------|
G|-----1-x-1--2---|
D|-----2-x-2--0---|
A|----------------|
E|--0-------------|

The fingerpicking part
E|---------------------------------------------------|
B|-----------3v------3-----3-----5v--3---------------|
G|--0--1--2------------------------------------------|
D|---------------------------------------------------|
A|---------------------------------------------------|
E|-----0-----0----0-----0-----0------0----0----0-----|
The E string just does eighth notes.

And the rest of the song is chords, which I will show you next.

E(riff)
I'm bringing back ghosts
D
That are no longer there
E(riff)
I'm getting hard on myself
D
Sittin in my easy chair.
------------------A
Well theres 3 people in the mirror
------------G---------------------------D-------------------E(Riff)
And I'm wondering which one of them I should choose
---------------B
Well I cant keep from laughing
------------------------D---------------G------------------E
Spitting out these 300 mile per hour outpour blues

In the last part there, the D and the G are played for half the time you play the B, 
listen to the song to figure it out.
In the last verse, he plays E5 up at the 7th fret on the A string and D5 instead of the open chords.

I think that's it.
comments
print report bad tab
4 comments total. Showing first comments.
0 reply
Tabassco wrote on June 26 2007, 11:27 am

It's more like this:
-----------------------------------------|
-----------------------------------------|
-----------------------------------------|
---6-x-6--4---6-x-6--4----/7-6-----------|
---7-x-7--5---7-x-7--5---------7---------|
0-----------0----------------------------|

0 reply
Tabassco wrote on June 26 2007, 11:27 am

It'll sound good that way.

0 reply
ne0_cz wrote on July 23 2007, 02:04 pm

I don't think it sounds good your way...

I want to post or [tab]
guest
You may want to rate the tab now too:
select rating
Please do not post tabs as comments. Select "correction" instead!