Oops, an error
Loading. Please wait.

As Ugly As I Seem tab

version 2
version 2

Whole song

Interactive

11,283 views 1 this week
no commentswrite comment
1 2 3 4 5
x 5
add to favorites
×
Save as Personal and add changes to this tab that will be seen only by you. Learn more ›
×
You can save this tab as Personal to edit and correct it or add notes. All changes will be seen only by you. Learn more »
launch autoscroll
font size
0
reset
how to read this tab
guitar tuner
edit
Autoscroll
slow
fast
+/-
esc
set tempo
stop
-------------------------------------------------------------------------------
                             As Ugly as I seem - the white stripes
-------------------------------------------------------------------------------
Tabbed by: Kyle Landgraf
Email: klstrider@comcast.net

Okay, here's what I have.  The intro is solid, and the rhythm is good but you need to
work in your own variations occasionally.

Intro
e|---------------------------------------------------------------------------|
B|--3\2—-x-x--3-3\2-x-2------------------x-x--3-3\2-x-2----------------------|
G|--2-2--x-x--2-2-2-x-2--0-0-------------x-x--2-2-2-x-2--0-0-----------------|
D|--2-2--x-x--2-2-2-x-2---2----(2)-(2)---x-x--2-2-2-x-2---3----(3)-(3)-------|
A|---------------------------------------------------------------------------|
E|---------------------------------------------------------------------------|

e|---------------------------------------------------------------------------|
B|--x-x--3-3\2-x-0-----------------------------------------------------------|
G|--x-x--2-2-2-x-2--0-0------------------------------------------------------|
D|--x-x--2-2-2-x-2---2--------(play either soft of ghost notes here)---------|
A|---------------2-----------------------------------------------------------|
E|---------------------------------------------------------------------------|

Rhythm/Verses
     I...       am as ugly as I seem...
e|---------------------------------------------------------------------------|
B|----------2-------3\2--0--2--2---------------------------------------------|
G|------2-2---2-----2-2--0--2--2---------------------------------------------|
D|------------------2-2--0--2--2---------------------------------------------|
A|---------------------------------------------------------------------------|
E|---------------------------------------------------------------------------|
     Worse than all your dreams
e|--------------------------4------------------------------------------------|
B|----3\2-------------------0------------------------------------------------|
G|----2-2------0-0----------0----------2----2--------------------------------|
D|----2-2------0-0----------0------2-2---2-2---------------------------------|
A|--------------------------2------------------------------------------------|
E|--------------------------3------------------------------------------------|
       Could ever make me out to be
e|---------------------------------------------------------------------------|
B|-----------------2---------------------------------------------------------|
G|----2------------2---------------------------------------------------------|
D|-2-2-------------2---------------------------------------------------------|
A|---------------------------------------------------------------------------|
E|---------------------------------------------------------------------------|


|------------------------|------------------------|
|------------------------|------------------------|
|-------0--------0-----0-|-------0----------------|
|----2--------4-----4----|----2--------4----------| Play twice
|-3--------5-------------|-3--------5-----3--2--0-| 
|------------------------|------------------------|






| /  slide up
| \  slide down
| h  hammer-on
| p  pull-off
| ~  vibrato
| +  harmonic
| x  Mute note
===============================================================================
Suggest correction
Creating personal tab
Creating personal tab
You can edit any tab online and save it as your Personal.

You can edit, replace or remove any tab part or add personal notes – all changes will be seen only by you.

Personal tabs can be accessed anytime from any device, even offline.
Learn more »
comments
print report bad tab
guest
You may want to rate the tab now too:
select rating
Wanna post a correction for this tab? Suggest correction