Oops, an error
Loading. Please wait.

Black Jack Davey Bass Tab

3,624 views 3 this week
1 commentread comment
1 2 3 4 5
please rate
add to favorites
launch autoscroll
font size
0
reset
guitar tuner
Tab Pro tools
  • play this tab
  • loop segment
  • change instrument
  • show fretboard
  • metronome
×
Best way to learn
"Black Jack Davey"
Autoscroll
slow
fast
+/-
esc
set tempo
stop
Difficulty
novice
Black Jack Davey - The White Stripes

Intro/Solo
|-------------------------------0------------------------------|
|---------0-0-2-----------0-2-2-2----------0-0-2---------------|
|-0-0-0-3-------3-0-0-0-3-----3-3--0-0-0-3-------3-0-0-0-3-3---|
|-----------------------------0-0----------------------------0-|

|-2-3-3-2-3-3-0----2-0----------|
|----------------------2-0------|
|--------------------------3-0--|
|-------------------------------|

Verse
|---1-1---1-1--      |---1-1-1---1-1-1-|
|-2-2-2-2-2-2--  or  |-2-2-2-2-2-2-2-2-|
|-2-----2------      |-2-------2-------|
|--------------      |-----------------|
comments
We did not receive enough feedback on this tab! Please rate:
print report bad tab
1 2 3 4 5
1 comment total.
0 reply
bucketheaddude wrote on July 25 2007, 02:41 am

The White Stripes don't have a bass player, Jack White plays the bass parts on guitar.

I want to post or [tab]
guest
You may want to rate the tab now too:
select rating
Please do not post tabs as comments. Select "correction" instead!