Oops, an error
Loading. Please wait.

Black Math Bass Tab

version 1
version 1

Whole song

Interactive

4,576 views 6 this week
no commentswrite comment
1 2 3 4 5
excellent!
x 8
add to favorites
launch autoscroll
font size
0
reset
guitar tuner
Tab Pro tools
  • play this tab
  • loop segment
  • change instrument
  • show fretboard
  • metronome
×
Best way to learn
"Black Math"
Autoscroll
slow
fast
+/-
esc
set tempo
stop
Contributor
Difficulty
novice
Black Math by The White Stripes

Intro:
G|---------|---------|---------|---------| X4
D|---------|---------|---------|---------|
A|-3---3---|-3---3---|---------|---------|
E|---3---3-|---3---3-|-5-5-5-5-|-5-5-5-3-|

Verse 1:
G|---------|---------|---------|----------| X2
D|---------|---------|---------|----------|
A|---------|---------|-3---3---|-3---3----|
E|-5-5-5-5-|-5-5-5-3-|---3---3-|---3----3-|

G|---------|---------|---------|---------|---------|---------|---------|---------|
D|---------|---------|---------|---------|---------|---------|---------|---------|
A|---------|---------|-0-0-0-0-|-3-3-3-3-|---------|---------|---------|---------|
E|-0-0-0-0-|-3-3-3-3-|---------|---------|-5-5-5-5-|-5-5-5-5-|-5-5-5-5-|-5-5-5-5-|

Verse 2:
G|---------|---------|---------|----------| X2
D|---------|---------|---------|----------|
A|---------|---------|-3---3---|-3---3----|
E|-5-5-5-5-|-5-5-5-3-|---3---3-|---3----3-|

G|---------|---------|---------|---------|---------|---------|---------|---------|
D|---------|---------|---------|---------|---------|---------|---------|---------|
A|---------|---------|-0-0-0-0-|-3-3-3-3-|---------|---------|---------|---------|
E|-0-0-0-0-|-3-3-3-3-|---------|---------|-5-5-5-5-|-5-5-5-5-|-5-5-5-5-|-5-5-5-5-|

Verse 3:
G|-----------------|--------------|-----------------|--------------| X4
D|-----------------|--------------|-----------------|--------------|
A|-----------------|------------5-|-----------------|------------5-|
E|-5-5-5-5-5-5-5-5-|-5-5-5-5-5----|-5-5-5-5-5-5-5-5-|-5-5-5-5-5----|

G|-----------------|-----------------|-----------------|-----------------|
D|-----------------|-----------------|-----------------|-----------------|
A|-----------------|-----------------|-0-0-0-0-0-0-0-0-|-3-3-3-3-3-3-3-3-|
E|-0-0-0-0-0-0-0-0-|-3-3-3-3-3-3-3-3-|-----------------|-----------------|

Guitar Solo:
G|---------|---------|---------|---------| X4
D|---------|---------|---------|---------|
A|-3---3---|-3---3---|---------|---------|
E|---3---3-|---3---3-|-5-5-5-5-|-5-5-5-3-|

G|---------|---------|---------|---------|
D|---------|---------|---------|---------|
A|---------|---------|---------|---------|
E|-5-5-5-5-|-5-5-5-5-|-5-5-5-5-|-5-5-5-5-|

G|---------|---------|---------|---------|
D|---------|---------|---------|---------|
A|-3---3---|-3---3---|---------|---------|
E|---3---3-|---3---3-|-5-5-5-5-|-5-5-5-3-|

G|---------|---------|---------|---------|---------|---------|
D|---------|---------|---------|---------|---------|---------|
A|-3---3---|-3---3---|---------|---------|---------|---------|
E|---3---3-|---3---3-|-5-5-5-5-|-5-5-5-5-|-5-5-5-5-|-5-5-5-5-|

Verse 4:
G|---------|---------|---------|----------| X2
D|---------|---------|---------|----------|
A|---------|---------|-3---3---|-3---3----|
E|-5-5-5-5-|-5-5-5-3-|---3---3-|---3----3-|

G|---------|---------|---------|---------|---------|---------|---------|---------|
D|---------|---------|---------|---------|---------|---------|---------|---------|
A|---------|---------|-0-0-0-0-|-3-3-3-3-|---------|---------|-0-0-0-0-|-3-3-3-3-|
E|-0-0-0-0-|-3-3-3-3-|---------|---------|-0-0-0-0-|-3-3-3-3-|---------|---------|

G|---------|---------|---------|---------|---------|---------|---------|---------|
D|---------|---------|---------|---------|---------|---------|---------|---------|
A|---------|---------|---------|---------|---------|---------|---------|---------|
E|-5-5-5-5-|-5-5-5---|-5-5-5-5-|-5-5-5---|-5-5-5-5-|-5-5-5---|-5-5-5-5-|-5-5-5---|

G|---------| 
D|---------|
A|---------|
E|-5-------|

comments
print report bad tab
I want to post or [tab]
guest
You may want to rate the tab now too:
select rating
Please do not post tabs as comments. Select "correction" instead!