Oops, an error
Loading. Please wait.

Black Math Tab

version 3
version 3

Intro

Solo

Whole song

Interactive

5,138 views 24 this week
no commentswrite comment
1 2 3 4 5
accurate
x 3
add to favorites
launch autoscroll
font size
0
reset
how to read this tab
guitar tuner
Tab Pro tools
  • play this tab
  • loop segment
  • change instrument
  • show fretboard
  • metronome
×
Best way to learn
"Black Math"
Autoscroll
slow
fast
+/-
esc
set tempo
stop
Contributor
Difficulty
intermediate
Black Math - The White Stripes

Intro/Riff
|------------------------------------------|----------------------|
|------------------------------------------|----------------------|
|--5-5-------5-5-------5-5-------5-5-------|----------------------|
|--5-5--5-5--5-5--5-5--5-5--5-5--5-5--5-5--|--7-7--7-7--7-7--7-7--|
|--3-3--5-5--3-3--5-5--3-3--5-5--3-3--5-5--|--7-7--7-7--7-7--7-7--|
|-------3-3-------3-3-------3-3-------3-3--|--5-5--5-5--5-5--5-5--|

Bridge (Distortion)
|--------------------------|
|--------------------------|
|-----------------------7--|
|--7--7-7--7-7--7-7--7--7--|
|--7--7-7--7-7--7-7--7--5--|
|--5--5-5--5-5--5-5--5-----|

Solo (Whammy Pedal)
|-10b12-b12-b12-b12-b12-b12-b12-b12-10b-10b12-10b12-10b12-11b-8-12-10---10-|
|---------------------------------------------------------------------13---|
|--------------------------------------------------------------------------|
|--------------------------------------------------------------------------|
|--------------------------------------------------------------------------|
|--------------------------------------------------------------------------|

|-10-8-12-10-13-10-11-10-8-10-7-8-24b-24-24-24/-17171717171517171717-20-21-|
|--------------------------------------------------------------------------|
|--------------------------------------------------------------------------|
|--------------------------------------------------------------------------|
|--------------------------------------------------------------------------|
|--------------------------------------------------------------------------|

|-21b20-17-10b12-10b12-12b10---8-10-b12b10----------------10-10-8-10b-10-8-|
|---------------------------10b-----------3-4-3----------------------------|
|----------------------------------------------3-3-3-3-3-3-----------------|
|--------------------------------------------------------------------------|
|--------------------------------------------------------------------------|
|--------------------------------------------------------------------------|

|-10b12--b12-b12-10-8--10b12-b12-10-8--10b12-10-8-5-8-5--5b--5b6--5b7--5b8-|
|--------------------------------------------------------------------------|
|--------------------------------------------------------------------------|
|--------------------------------------------------------------------------|
|--------------------------------------------------------------------------|
|--------------------------------------------------------------------------|
comments
We did not receive enough feedback on this tab! Please rate:
print report bad tab
1 2 3 4 5
I want to post or [tab]
guest
You may want to rate the tab now too:
select rating
Please do not post tabs as comments. Select "correction" instead!