Oops, an error
Loading. Please wait.

Blue Orchid Bass Tab

version 2
version 2

Whole song

12,128 views 15 this week
no commentswrite comment
1 2 3 4 5
excellent!
x 7
add to favorites
launch autoscroll
font size
0
reset
guitar tuner
Tab Pro tools
  • play this tab
  • loop segment
  • change instrument
  • show fretboard
  • metronome
×
Best way to learn
"Blue Orchid"
Autoscroll
slow
fast
+/-
esc
set tempo
stop
Contributor
White Stripes
Blue Orchid
Bass Tab by: Stoyo1
Standard tuning
Note: There is originally no bass guitar in this song. Jack White plays with an effect 
that gives the lower notes. I play this song with my band like this though. Enjoy

Verse (0:05)
|------------------|-----------------|
|------------------|------------0-3-5|
|---------1--------|--------1-3------|
|3---1-3----1------|3---1-3----------|
(0:12)
|----------------------|-----------------------|
|----------------------|------------0-3-3h5p3h5|
|---------1----------1-|--------1-3------------|
|3---1-3----1----1-3---|3---1-3----------------|
(0:19)
|------------------|-----------------|
|------------------|------------0-3-5|
|---------1--------|--------1-3------|
|3---1-3----1------|3---1-3----------|
(0:25)
|----------------------|-----------------|
|----------------------|------------0-3-5|
|---------1----------1-|--------1-3------|
|3---1-3----1----1-3---|3---1-3----------|
(0:31)
|------------------|-----------------------|
|------------------|------------0-3-3h5p3h5|
|---------1--------|--------1-3------------|
|3---1-3----1------|3---1-3----------------|
(0:38)
|----------------------|-----------------|
|----------------------|------------0-3-5|
|---------1----------1-|--------1-3------|
|3---1-3----1----1-3---|3---1-3----------|
(0:45)
|------------------|------------------|------------------|----------------|
|------------------|------------------|------------------|----------------|
|---33-1-----5-3-1-|----33-1----------|---33-1-----5-3-1-|----33-1--------|
|3-------1---------|3--------1-1-1-1-1|3-------1---------|3--------1-1-1-1|

Rest, guitar solo(0:57)

Verse (1:09)
|------------------|-----------------|
|------------------|------------0-3-5|
|---------1--------|--------1-3------|
|3---1-3----1------|3---1-3----------|
(1:15)
|----------------------|-----------------------|
|----------------------|------------0-3-3h5p3h5|
|---------1----------1-|--------1-3------------|
|3---1-3----1----1-3---|3---1-3----------------|
(1:22)
|------------------|-----------------|
|------------------|------------0-3-5|
|---------1--------|--------1-3------|
|3---1-3----1------|3---1-3----------|
(1:28)
|----------------------|-----------------|
|----------------------|------------0-3-5|
|---------1----------1-|--------1-3------|
|3---1-3----1----1-3---|3---1-3----------|
(1:34)
|------------------|-----------------------|
|------------------|------------0-3-3h5p3h5|
|---------1--------|--------1-3------------|
|3---1-3----1------|3---1-3----------------|
(1:41)
|----------------------|-----------------|
|----------------------|------------0-3-5|
|---------1----------1-|--------1-3------|
|3---1-3----1----1-3---|3---1-3----------|
(1:47)
|------------------|------------------|------------------|----------------|
|------------------|------------------|------------------|----------------|
|---33-1-----5-3-1-|----33-1----------|---33-1-----5-3-1-|----33-1--------|
|3-------1---------|3--------1-1-1-1-1|3-------1---------|3--------1-1-1-1|

Rest, guitar solo(1:59)

Verse (2:11)
|------------------|-----------------|
|------------------|------------0-3-5|
|---------1--------|--------1-3------|
|3---1-3----1------|3---1-3----------|
(2:18)
|----------------------|-----------------------|
|----------------------|------------0-3-3h5p3h5|
|---------1----------1-|--------1-3------------|
|3---1-3----1----1-3---|3---1-3----------------|
(2:25)
|----------------------|-----------------|
|----------------------|------------0-3-5|
|---------1----------1-|--------1-3------|
|3---1-3----1----1-3---|3---1-3----------|
(2:30)
|------------------|-----------------|
|------------------|------------0-3-5|
|---------1--------|--------1-3------|
|3---1-3----1------|3---1-3----------|

End
comments
print report bad tab
I want to post or [tab]
guest
You may want to rate the tab now too:
select rating
Please do not post tabs as comments. Select "correction" instead!