Oops, an error
Loading. Please wait.

Bone Broke Tab

version 1
version 1

Whole song

Interactive

25,775 views 18 this week
11 commentsread comments
1 2 3 4 5
excellent!
x 20
add to favorites
launch autoscroll
font size
0
reset
how to read this tab
guitar tuner
Tab Pro tools
  • play this tab
  • loop segment
  • change instrument
  • show fretboard
  • metronome
×
Best way to learn
"Bone Broke"
Autoscroll
slow
fast
+/-
esc
set tempo
stop
Contributor
Difficulty
novice
-------------------------------------------------------------------------------
    Bone Broke - White Stripes
-------------------------------------------------------------------------------
Tabbed by:metalrobot

Tuning:EADGBe

Verse:
e|---------------------------------------------------------------------------|
B|---------------------------------------------------------------------------|
G|------77-77-77-------------------------------------------------------------|
D|-7-9--77-77-77-(x6)----2-2-2--5-5-5----------------------------------------|
A|-7-9--55-55-55---------2-2-2--5-5-5----------------------------------------|
E|-5-7-------------------0-0-0--3-3-3----------------------------------------|

Play the verse 3 times

Chorus:
e|---------------------------------------------------------------------------|
B|---------------------------------------------------------------------------|
G|---------------------------------------------------------------------------|
D|-9-9-99999-2-7-7-77777-2------5-5-55555-----2-4-4-44444--------------------|
A|-9-9-99999-2-7-7-77777-2(x3)--5-5-55555(x2)-2-4-4-44444--------------------|
E|-7-7-77777-0-5-5-55555-0------3-3-33333-----0-2-2-22222--------------------|

play the first group of c's 2 times before starting the chorus

Solo 1:
e|-10-12-14-12(x2)-10-12-14-12-10-10-10-14-14^-14^---------------------------|
B|---------------------------------------------------------------------------|
G|---------------------------------------------------------------------------|
D|---------------------------------------------------------------------------|
A|---------------------------------------------------------------------------|
E|---------------------------------------------------------------------------|

Solo 2:
e|-10-12-12-14-14^-12-10-10-10-12-10-14^-------------------------------------|
B|---------------------------------------------------------------------------|
G|---------------------------------------------------------------------------|
D|---------------------------------------------------------------------------|
A|---------------------------------------------------------------------------|
E|---------------------------------------------------------------------------|

Song Order:
Verse
Chorus
Solo 1
Verse
Chorus
Solo 2

I hope you enjoy this tab. This is my first tab. I wrote this all by ear. I am pretty sure its right.


| /   slide up
| \   slide down
| h   hammer-on
| p   pull-off
| ~   vibrato
| +   harmonic
| x   Mute note
=============================================================================== 
comments
print report bad tab
11 comments total. Showing first comments.
-1 reply
smnp wrote on July 8 2007, 05:41 am

If anything, the verse should be like this:

Verse:
e|-------------------------------------------|
B|-------------------------------------------|
G|------77-77-77-77--------------------------|
D|-7-9--77-77-77-77(x6)--2-2-2--5-5-5--------|
A|-7-9--55-55-55-55------2-2-2--5-5-5--------|
E|-5-7-------------------0-0-0--3-3-3--------|

0 reply
metalrobot wrote on July 8 2007, 03:36 pm

thanks for the comment, just noticed that. I just edited it and should show up right the way soon.

0 reply
smnp wrote on July 12 2007, 09:22 am

No problem, it's a good tab. It's probably better to improvise the solos though. But as a "base", this is good.

I want to post or [tab]
guest
You may want to rate the tab now too:
select rating
Please do not post tabs as comments. Select "correction" instead!