Oops, an error
Loading. Please wait.

Catch Hell Blues tab

version 3
version 3

Whole song

Interactive

13,805 views 6 this week
5 commentsread comments
1 2 3 4 5
x 6
add to favorites
×
Save as Personal and add changes to this tab that will be seen only by you. Learn more ›
×
You can save this tab as Personal to edit and correct it or add notes. All changes will be seen only by you. Learn more »
launch autoscroll
font size
0
reset
how to read this tab
guitar tuner
edit
Autoscroll
slow
fast
+/-
esc
set tempo
stop
Author
The White Stripes - Catch Hell Blues
Open A tuning (EAEAC#E) With slide

Break
|-------------------------------------------------------------------|
|-------------------------------------------------------------------|
|------0-----2-----3-----5-------------10-------12-----8-----7------|
|----0-----2-----3-----5------------10-------12------8-----7--------|
|--0-----2-----3-----5-----5/8-7-10-------12-------8-----7-----5\3--|
|-------------------------------------------------------------------|

|-------------------------------------------------------|
|-------------------------------------------------------|
|------7-----8-----5-----3-----3--0--3p0-3--3p0--3\--0--|
|----7-----8-----5-----3-------3--0--3p0-3--3p0--3\--0--|
|--7-----8-----5-----3-----3/7-3--0--3p0-3--3p0--3\--0--|
|-------------------------------------------------------|

|-------------------------------------------------------------------|
|-------------------------------------------------------------------|
|------0-----2-----3-----5-------------10-------12-----8-----7------|
|----0-----2-----3-----5------------10-------12------8-----7--------|
|--0-----2-----3-----5-----5/8-7-10-------12-------8-----7-----5\3--|
|-------------------------------------------------------------------|

|-------------------------------------------------------|
|-------------------------------------------------------|
|------7-----8-----5-----3-----3--0--3p0-3--3p0--3\--0--|
|----7-----8-----5-----3-------3--0--3p0-3--3p0--3\--0--|
|--7-----8-----5-----3-----3/7-3--0--3p0-3--3p0--3\--0--|
|-------------------------------------------------------|

|-------------------------------------------------------------------|
|-------------------------------------------------------------------|
|--0-0-0-2-2-2-3-3-3-5-5-5-5/8-7-10-10-10-12-12-12-8-8-8-7-7-7-5\3--|
|--0-0-0-2-2-2-3-3-3-5-5-5-5/8-7-10-10-10-12-12-12-8-8-8-7-7-7-5\3--|
|--0-0-0-2-2-2-3-3-3-5-5-5-5/8-7-10-10-10-12-12-12-8-8-8-7-7-7-5\3--|
|-------------------------------------------------------------------|

|-------------------------------------------------------|
|-------------------------------------------------------|
|--7-7-7-8-8-8-5-5-5-3-3-3-3/7-3--0--3p0-3--3p0--3\--0--|
|--7-7-7-8-8-8-5-5-5-3-3-3-3/7-3--0--3p0-3--3p0--3\--0--|
|--7-7-7-8-8-8-5-5-5-3-3-3-3/7-3--0--3p0-3--3p0--3\--0--|
|-------------------------------------------------------|

|-------------------------------------------------------------------|
|-------------------------------------------------------------------|
|--0-0-0-2-2-2-3-3-3-5-5-5-5/8-7-10-10-10-12-12-12-8-8-8-7-7-7-5\3--|
|--0-0-0-2-2-2-3-3-3-5-5-5-5/8-7-10-10-10-12-12-12-8-8-8-7-7-7-5\3--|
|--0-0-0-2-2-2-3-3-3-5-5-5-5/8-7-10-10-10-12-12-12-8-8-8-7-7-7-5\3--|
|-------------------------------------------------------------------|

|------------------------------------|
|------------------------------------|
|--7-7-7-8-8-8-5-5-5-3-3-3-3/7-3--0--|
|--7-7-7-8-8-8-5-5-5-3-3-3-3/7-3--0--|
|--7-7-7-8-8-8-5-5-5-3-3-3-3/7-3--0--|
|------------------------------------|

Verse
|--------(Play 4 Times)-------------------|
|-----------------------------------------|
|--0-0--2-2--3-3--5-5--0-0--2-2--3-3--5\--|
|--0-0--2-2--3-3--5-5--0-0--2-2--3-3--5\--|
|--0-0--2-2--3-3--5-5--0-0--2-2--3-3--5\--|
|-----------------------------------------|

Start of solos (with wah pedal)
|------(Play 2 Times)-------------------|
|---------------------------------------|
|--12/15-15-15-15-15-12-12-14-12-12-14--|
|--12/15-15-15-15-15-12-12-14-12-12-14--|
|---------------------------------------|
|---------------------------------------|

After solos
|--------------------------------------------------------------------------|
|--------------------------------------------------------------------------|
|------9-9-9-9/10\-7-9\------7-7-7-7/8\-5-7\--------12-12-12-12/13\-10-12\-|
|------9-9-9-9/10\-7-9\------7-7-7-7/8\-5-7\--------12-12-12-12/13\-10-12\-|
|--7/9-----9-9/10\-7-9\--5/7-----7-7/8\-5-7\--10/12-------12-12/13\-10-12\-|
|--------------------------------------------------------------------------|

Ending
|-----------------------------------|
|-----------------------------------|
|------0-----2-----3-----5-------0--|
|----0-----2-----3-----5---------0--|
|--0-----2-----3-----5-----5/8\7-0--|
|-----------------------------------|

            
            
Suggest correction
Creating personal tab
Creating personal tab
You can edit any tab online and save it as your Personal.

You can edit, replace or remove any tab part or add personal notes – all changes will be seen only by you.

Personal tabs can be accessed anytime from any device, even offline.
Learn more »
comments
print report bad tab
5 comments total. Showing first comments.
0 reply
3holepunch 50 Jul 23, 2007 03:41 PM

Right ideas in some areas, but overall wrong.

0 reply
DirtyFryBassGuy 20 Jul 23, 2007 07:29 PM

the verse you have right

and most of the intro

but the solo is way off

WAY off

0 reply
#1beckfan 10 Aug 14, 2007 06:41 AM

Screw THis retarded open A shit its too confusing

guest
You may want to rate the tab now too:
select rating
Wanna post a correction for this tab? Suggest correction