Oops, an error
Loading. Please wait.

Cold Cold Night bass

version 1
version 1

Whole song

Interactive

5,998 views 6 this week
1 commentread comment
1 2 3 4 5
x 3
add to favorites
×
Save as Personal and add changes to this tab that will be seen only by you. Learn more ›
×
You can save this tab as Personal to edit and correct it or add notes. All changes will be seen only by you. Learn more »
launch autoscroll
font size
0
reset
guitar tuner
edit
Autoscroll
slow
fast
+/-
esc
set tempo
stop
Cold, Cold Night by the White Stripes
(standard tuning)


|-----------2--|----------|
|-----3--5-----|----------|
|--5-----------|----------|
|--------------|--5----3--|
 4 times


|-----------2--|----------|
|-----3--5-----|----------|
|--5-----------|----------|
|--------------|--5----3--|
 5 times


|-----------2--|
|-----3--5-----|
|--5-----------|
|--------------|
 2 times


|--------------------------------------------------|
|----------------------5----5----------------------|
|--5----5----5----5--------------5----5------------|
|------------------------------------------5----3--|


|-----------2--|----------|
|-----3--5-----|----------|
|--5-----------|----------|
|--------------|--5----3--|
 6 times


|-----------2--|----------|
|-----3--5-----|----------|
|--5-----------|----------|
|--------------|--5----3--|
 4 times


|--------------|------------|
|--------------|------------|
|--5-5-3-------|------------|
|---------5----|--5-3----1--|
 3 times


|-----------2--|
|-----3--5-----|
|--5-----------|
|--------------|
 3 times


I saw you standing in the corner
On the edge of a buring light
I saw you standing in the corner

Come to me again in the cold, cold night
In the cold, cold night

You make me feel a little older
Like a full grown women might.
But when you gone I grow colder

Come to me again in the cold, cold night
In the cold, cold night

I hear you walkin' by my front door
I hear the creakin' of the kitchen floor
I don't care what other people say
I'm gonna love you anyway

Come to me again in the cold, cold night
In the cold, cold night

I can't stand it any longer
I need the fuel to make my fire bight
So don't fight it any longer

Come to me again in the cold ,cold night
In the cold, cold night

And I know that you feel it too
When my skin turns into glue
You will know that it's warm inside
And you'll come run to me

In the cold cold night
In the cold cold night
In the cold cold night
In the cold cold night

            
            
Suggest correction
Creating personal tab
Creating personal tab
You can edit any tab online and save it as your Personal.

You can edit, replace or remove any tab part or add personal notes – all changes will be seen only by you.

Personal tabs can be accessed anytime from any device, even offline.
Learn more »
Give kudos to tab author, rate the tab!
1 2 3 4 5
comments
print report bad tab
1 comment total.
0 reply
Jordo141 483 Mar 19, 2011 01:24 PM

I think the main riff goes:
|--------------------------|
|--------------------------|
|--------------------------|
|-10~--10\-1--1/--3--3/5\1-|

guest
You may want to rate the tab now too:
select rating
Wanna post a correction for this tab? Suggest correction