Oops, an error
Loading. Please wait.
We have an official Dead Leaves And The Dirty Ground tab made by UG professional guitarists. Check out the tab »
×
9,812 views 3 this week
1 commentread comment
1 2 3 4 5
x 7
add to favorites
launch autoscroll
font size
0
reset
guitar tuner
backing track
0:00
0:00
×
Best way to learn
"Dead Leaves And The Dirty Ground"
Autoscroll
slow
fast
+/-
esc
set tempo
stop
Author
|----------------------------|
|----------------------------|
|----------------------------|
|5-5-50-4-4-40-2-20-1-10-5-50|   x4

|---------------------------------|
|---------------------------------|
|------3--5--0-----0-----3--5--0--|
|5--3-----------3-----3-----------|

|---------------------------------------|
|---------------------------------------|
|--0-----3--5--0--0-----3--5--0--------0|
|3----3----------3---3-----------1--3---|  x2

|----------------------------------------------|
|----------------------------------------------|
|0--0-------3-3-5-5-0--0----0-0-------3-3-5-5-0|
|------3--3---------------3------3--3----------|

|-------------------------------------|
|-------------------------------------|
|---------------------3--5--0--------0|
|5--3--2-1-5--3-5--3-----------1--3---|

|-----------------------------------------|
|-----------------------------------------|
|--0-----3--5--0----0-----3--5--0--------0|
|3----3-----------3----3-----------1--3---|

|----------------------------------------------|
|----------------------------------------------|
|0--0-------3-3-5-5-0--0----0-0-------3-3-5-5-0|
|------3--3---------------3------3--3----------|

|----------------------------------------------------------------|
|----------------------------------------------------------------|
|5-5-5-5-5-5-5-5------------------5-5-5-5-5-5-5-5-3-3-3-3-5-5-5-5|
|----------------5-5-5-5-35-5-5-5--------------------------------|

|-------------------------------------|
|-------------------------------------|
|---------------------3--5--0--------0|
|5--3--2-1-5--3-5--3-----------1--3---|

|--------------------------------|
|--------------------------------|
|--0-----3--5--0----0-----3--5--0|
|3----3-----------3----3---------|
Suggest correction
comments
print report bad tab
1 comment total.
0 reply
5up3 10 May 21, 2013 09:10 PM

Bridge:
|----------------------------------------------------------------|
|----------------------------------------------------------------|
|5-5-5-5-5-5-5-5------------------5-5-5-5-5-5-5-5-3-3-3-3-5-5-5-5|
|----------------5-5-5-5-35-5-5-5--------------------------------|
More like this instead:
|------------------------------------------------------------------|
|------------------------------------------------------------------|
|5-5-5-5-5-5-5-5-------------------5-5-5-5-5-5-5-5-----------------|
|----------------5-5-5-5/3-5-5-5-5----------------0/1-1-1-1-3-3-3-3|


otherwise, great tab!

guest
You may want to rate the tab now too:
select rating
Wanna post a correction for this tab? Suggest correction