Oops, an error
Loading. Please wait.
We have an official Dead Leaves And The Dirty Ground tab made by UG professional guitarists. Check out the tab »
×
26,983 views 12 this week
7 commentsread comments
1 2 3 4 5
x 21
add to favorites
launch autoscroll
font size
0
reset
how to read this tab
guitar tuner
backing track
0:00
0:00
Autoscroll
slow
fast
+/-
esc
set tempo
stop
The tab has no timing on it, so listen to the song for it.

intro
|--------------------------
|--------------------------
|--------------------------
|-7--7-5--5-4--4-3--3-7--7-    there may be a few muted
|-7--7-5--5-4--4-3--3-7--7-    strums inbetween chord
|-5--5-3--3-2--2-1--1-5--5-    changes.

main riff 
|----------------------------
|----------------------------
|-------------5--5--7--7-----
|-7--7--5--5--5--5--7--7--7--
|-7--7--5--5--3--3--5--5--7--
|-5--5--3--3--------------5--

throughout song, basically, from what I can tell, just pick at the chords in the 
main riff or the intro chords, playing bass notes mostly and mayb strum a couple.


this is played near the middle/end of the song after the main riff has been played twice
|---------------------------------------------------------
|---------------------------------------------------------
|-7-7-7-7-7-7-7-7-x---------------------7-7-7-7-7-7-7-7-x-
|-7-7-7-7-7-7-7-7-x-7-7-7-7-x-7-7-7-7-x-7-7-7-7-7-7-7-7-x-
|-5-5-5-5-5-5-5-5-x-7-7-7-7-x-7-7-7-7-x-5-5-5-5-5-5-5-5-x-
|-------------------5-5-5-5-x-5-5-5-5-x-------------------

|-----------------
|-----------------
|-----------------
|-5-5-5-5-5-5-5-5-
|-5-5-5-5-5-5-5-5-
|-3-3-3-3-3-3-3-3-

then after play the intro riff again

ok, they're the main parts of the song, quite simple to remember them.

e-mail corrections to im_starting_2_like_th@barmaid.co.uk
Suggest correction
comments
print report bad tab
7 comments total. Showing first comments.
0 reply
afromarge 0 Aug 20, 2002 08:00 PM

dodgy riff after intro

-------------------------------------
-------------------------------------
-6--7p6------4-------5-----7------6--
-7-7---7---5--5-5---5-----7------7-7-
-7----------5--5---3--3/5------7----7
-5------2/3------------------5-------

-------------------------------------
-------------------------------------
------7p6-----------4--4----5-----7--
----------7-------5--5-----5-5---7-7-
---7---------------5--5---3-----5----
-5-----------2/3---------------------

----------------
----------------
-------x--------
-----x---x------
---7-------7----
-5--------------

0 reply
WeezerPleezer 0 Sep 19, 2002 08:00 PM

Sorry lads, but it's a bit more complicated than that. Just thought that I'd let you know that you guys are wrong!!

0 reply
beaney79 10 Sep 24, 2002 08:00 PM

verse:play open possition A G C D A :add in 7th fills for first A and C note bass for the return A

guest
You may want to rate the tab now too:
select rating
Wanna post a correction for this tab? Suggest correction