Oops, an error
Loading. Please wait.
We have an official Dead Leaves And The Dirty Ground tab made by UG professional guitarists. Check out the tab »
×
13,034 views 1 this week
no commentswrite comment
1 2 3 4 5
x 7
add to favorites
×
Save as Personal and add changes to this tab that will be seen only by you. Learn more ›
×
You can save this tab as Personal to edit and correct it or add notes. All changes will be seen only by you. Learn more »
launch autoscroll
font size
0
reset
how to read this tab
guitar tuner
backing track
0:00
0:00
edit
Autoscroll
slow
fast
+/-
esc
set tempo
stop
Difficulty
intermediate
OK, this is a really fun song to jam to and i am VERY sure this tab is accurate so.....


Intro
with moderate distortion.. Short Feedback then.. Played 2x
e|-------------------------------------------------------------------------|
B|-------------------------------------------------------------------------|
G|-------------------------------------------------------------------------|
D|--7---7---7---7---5---5---5---3---4---4---4---3---3---3---7---7---5---5--|
A|--7---7---7---7---5---5---5---3---4---4---4---3---3---3---7---7---5---5--|
E|--5---5---5---0---3---3---3---0---2---2---0---1---1---0---5---5---3---3--|

e|-------------------------------------------------------------------------|
B|-------------------------------------------------------------------------|
G|-------------------------------------------------------------------------|
D|--7---7---7---7---5---5---5---3---4---4---4---3---3---3---7---5----------|
A|--7---7---7---7---5---5---5---3---4---4---4---3---3---3---7---5----------|
E|--5---5---5---0---3---3---3---0---2---2---0---1---1---0---5---3----------|




Then the Pre-verse which is played with light distortion.......

e|-------------------------------------------------------------------------|
B|--------3-p2-------------------------------------------------------------|
G|------2------2-----------------0------------0---------0--------2---------|
D|----2------------------------0------------0---------0--------2-----------|
A|--0---------------------0-h2---------0--3-------3/5--------0-------------|
E|-------------------0-h3--------------------------------------------------|

e|-------------------------------------------------------------------------|
B|----------3--p2-----------------------0----------------------------------|
G|----------------2-------------------0--------0-------0------2------------|
D|--------2-------------------------0--------0-------0-------2-------------|
A|---0--0--------------------0--h2---------3-----3/5--------0----0--0------|
E|---------------------0--h3-----------------------------------------------|


Verse 1 played clean
strum... Play 2x
e|-------------------------------------------------------------------------|
B|-------------------------------------------------------------------------|
G|---2---2---2-2----------------5-5-5----7-7-7----2---2-------2------------|
D|---2---2---2-2--5---5---5-5---5-5-5----7-7-7----2---2-------2------------|
A|---0---0---0-0--5---5---5-5---3-3-3----5-5-5----0---0-------0------------|
E|----------------3---3---3-3-----------------------------3^---------------|

e|-------------------------------------------------------------------------|
B|-------------------------------------------------------------------------|
G|---2---2---2-2----------------5-5-5----7-7-7----2---2-------------2------|
D|---2---2---2-2--5---5---5-5---5-5-5----7-7-7----2---2---3-3--5-5--2------|
A|---0---0---0-0--5---5---5-5---3-3-3----5-5-5----0---0---3-3--5-5--0------|
E|----------------3---3---3-3-----------------------------1-1--3-3---------|



After 1st verse
Played with heavy distortion

e|-------------------------------------------------------------------------|
B|-------------------------------------------------------------------------|
G|---------------5--5---7--7--------------------------5--5---7--7----------|
D|--7--7--5--5---5--5---7--7---7----5----7--7--5--5---5--5---7--7---7------|
A|--7--7--5--5---3--3---5--5---7----5----7--7--5--5---3--3---5--5---7------|
E|--5--5--3--3-----------------5----3----5--5--3--3-----------------5------|
                                                                    let ring


Verse 2 played clean

e|----------------------------------------------------------------|
B|----------------------------------------------------------------|
G|--2------------2------2--2---------5---7----2------------2------|
D|--2------------2------2--2--5--5---5---7----2---3---5----2------|
A|--0------------0------0--0--5--5---3---5----0---3---5----0------|
E|------3--2--1------3--------3--3----------------1---3--------3--|

e|-------------------------------------------------------------------------|
B|-------------------------------------------------------------------------|
G|---2---2---2-2----------------5-5-5----7-7-7----2---2-------2------------|
D|---2---2---2-2--5---5---5-5---5-5-5----7-7-7----2---2-------2------------|
A|---0---0---0-0--5---5---5-5---3-3-3----5-5-5----0---0-------0------------|
E|----------------3---3---3-3-----------------------------3^---------------|

e|-------------------------------------------------------------------------|
B|-------------------------------------------------------------------------|
G|---2---2---2-2----------------5-5-5----7-7-7----2---2-------------2------|
D|---2---2---2-2--5---5---5-5---5-5-5----7-7-7----2---2---3-3--5-5--2------|
A|---0---0---0-0--5---5---5-5---3-3-3----5-5-5----0---0---3-3--5-5--0------|
E|----------------3---3---3-3-----------------------------1-1--3-3---------|




After 2nd verse
Played with heavy distortion 2 times

e|-------------------------------------------------------------------------|
B|-------------------------------------------------------------------------|
G|---------------5--5---7--7--------------------------5--5---7--7----------|
D|--7--7--5--5---5--5---7--7---7----5----7--7--5--5---5--5---7--7---7------|
A|--7--7--5--5---3--3---5--5---7----5----7--7--5--5---3--3---5--5---7------|
E|--5--5--3--3-----------------5----3----5--5--3--3-----------------5------|
                                                                    let ring


"I didn't feel so bad 'till the sun went down"
played with heavy distortion

e|------------------------------------------------------------------|
B|------------------------------------------------------------------|
G|---7-7-7-7-7-7-7-7-------------------7-7-7-7-7-7-7-7--------------|
D|---7-7-7-7-7-7-7-7-7-7-7-7-5-7-7-7-7-7-7-7-7-7-7-7-7--7----5------|
A|---5-5-5-5-5-5-5-5-7-7-7-7-5-7-7-7-7-5-5-5-5-5-5-5-5--7----5------|
E|-------------------5-5-5-5-3-5-5-5-5------------------5----3------|


 Verse 3 played clean


e|----------------------------------------------------------------|
B|----------------------------------------------------------------|
G|--2------------2------2--2---------5---7----2------------2------|
D|--2------------2------2--2--5--5---5---7----2---3---5----2------|
A|--0------------0------0--0--5--5---3---5----0---3---5----0------|
E|------3--2--1------3--------3--3----------------1---3--------3--|

e|-------------------------------------------------------------------------|
B|-------------------------------------------------------------------------|
G|---2---2---2-2----------------5-5-5----7-7-7----2---2-------2------------|
D|---2---2---2-2--5---5---5-5---5-5-5----7-7-7----2---2-------2------------|
A|---0---0---0-0--5---5---5-5---3-3-3----5-5-5----0---0-------0------------|
E|----------------3---3---3-3-----------------------------3^---------------|

e|-------------------------------------------------------------------------|
B|-------------------------------------------------------------------------|
G|---2---2---2-2----------------5-5-5----7-7-7----2---2-------------2------|
D|---2---2---2-2--5---5---5-5---5-5-5----7-7-7----2---2---3-3--5-5--2------|
A|---0---0---0-0--5---5---5-5---3-3-3----5-5-5----0---0---3-3--5-5--0------|
E|----------------3---3---3-3-----------------------------1-1--3-3---------|




Outro played clean

e|-------------------------------------------------------------------------|
B|--------3-p2---------3-p2-----------------------------2----3-p2----------
G|------2------2------2----2-----------5---5---7---7----2--------2---------
D|----2--------------2---------5---5---5---5---7---7----0-----------------
A|--0---------------0----------5---5---3---3---5---5----------------------
E|-----------------------------3---3-------------------------------------

e|--------------------------|
B|--------------------------|
G|----------5--5--7--7---2--|
D|---5--5---5--5--7--7---2--|
A|---5--5---3--3--5--5---0--|
E|---3--3-------------------|


OK, that took a really long time haha... but i hope you guys enjoy!
Suggest correction
Creating personal tab
Creating personal tab
You can edit any tab online and save it as your Personal.

You can edit, replace or remove any tab part or add personal notes – all changes will be seen only by you.

Personal tabs can be accessed anytime from any device, even offline.
Learn more »
comments
print report bad tab
guest
Wanna post a correction for this tab? Suggest correction