Oops, an error
Loading. Please wait.

Fell In Love With A Girl Bass Tab

version 4
version 4
4,637 views 1 this week
no commentswrite comment
1 2 3 4 5
please rate
add to favorites
launch autoscroll
font size
0
reset
guitar tuner
Tab Pro tools
  • play this tab
  • loop segment
  • change instrument
  • show fretboard
  • metronome
×
Best way to learn
"Fell In Love With A Girl"
Autoscroll
slow
fast
+/-
esc
set tempo
stop
Contributor
There's actually no bass to the song, but this is what I think could be played.

Tabbed by David Jacobs.

[Intro]/Main Riff:
"Fell in love with a girl..."
G|---------------------------------|
D|---------------------------------|
A|-----------------5--5-55-7--7-77-|
E|-7--7-77-5--5-55-----------------|

"She turns and says..."
G|---------------------------------|
D|---------------------------------|
A|-----------------5--5-55-7--7-77-|
E|-2--2-22-5--5-55-----------------|

"She says 'come and kiss me'..."
G|---------------------|
D|---------------------|
A|-----------------9/1-|
E|-2--2-22-5--5-55-----|

(Main Riff)

"Red hair with a curl..."
G|---------------------------------|
D|---------------------------------|
A|-----------------5--5-55-7--7-77-|
E|-7--7-77-5--5-55-----------------|

[[["Can't think of anything to do..."
G|---------------------------------|
D|---------------------------------|
A|-----------------5--5-55-7--7-77-|
E|-2--2-22-5--5-55-----------------|

"She's just looking for something new..."
G|---------------------|
D|---------------------|
A|-----------------9/1-|
E|-2--2-22-5--5-55-----|]]]

[[[...]]] = I think it's repeated once more and then:

(ABRUPTLY AND AT THE END)
|
|
v
G|---|
D|---|
A|---|
E|-7-|
comments
We did not receive enough feedback on this tab! Please rate:
print report bad tab
1 2 3 4 5
I want to post or [tab]
guest
You may want to rate the tab now too:
select rating
Please do not post tabs as comments. Select "correction" instead!