Oops, an error
Loading. Please wait.

Girl You Have No Faith In Medacine Tab

2,879 views 1 this week
no commentswrite comment
1 2 3 4 5
worth learning
x 3
add to favorites
launch autoscroll
font size
0
reset
how to read this tab
guitar tuner
Tab Pro tools
  • play this tab
  • loop segment
  • change instrument
  • show fretboard
  • metronome
Autoscroll
slow
fast
+/-
esc
set tempo
stop
Contributor
White Stripes- girl, you have no fathin in medacine

Part 1 (Main Riff)
----0-00-----0-0-00---|
----0-00-----0-0-00---|
----0-00-----0-0-00---|
--2-0-002--2-0-0-000--|
--2-x-xx2--2-x-x-xx0--|
--0-3-330--0-3-3-332--|


part 2
--------------------|
--------------------|
--------------------|
--7-7710--7-7-7710--|
--7-7710--7-7-7710--|
--5-55-8--5-5-55-8--|


part 3
-------------------------------------|
-------------------------------------|
-------------------------1414141414\-|
--9-99--121212\(7)-7-77--1414141414\-|
--9-99--121212\(7)-7-77--1212121212\-|
--7-77--101010\(7)-5-55--1212121212\-|


part 4
-----------------------|
-----------------------|
-----------------------|
--7-7-7777-7/9-9-9999\-|
--7-7-7777-7/9-9-9999\-|
--5-5-5555-5/7-7-7777--|

part 5
-------------------------|
-------------------------|
-------------------------|
--10-10107--10-10-10107--|
--10-10107--10-10-10107--|
---8--8-85---8--8--8-85--|


part 6
-----------------------------|
-----------------------------|
-----------------------99999-|
--11-11-111111\9-9-999-77777-|
--11-11-111111\9-9-999-77777-|
---9--9--9-9-9\7-7-777-------|

This is how the parts make up the song:
part1x4, p2, p1, p3, p1x3, p2, p1, p4, p1,(pause),p 1,(pause), p1,(pause), p5, pause, 
pause, p4, p1x2, p2, p1, p4,p1-solo x4, p1, p6, p1x2, p5, p1, p4, p1x2, pause, p1- pause 
p5, pause, p1, p3, p1x8

Listen to the song and its easy to pick up on.

This is my second posting of the this song there was a mistake on the first one. I got 
all but your on your own with the solos, I'm purley a rythum player.

E-mail me if you have any questions- kudjomojo@hotmail.com
comments
We did not receive enough feedback on this tab! Please rate:
print report bad tab
1 2 3 4 5
I want to post or [tab]
guest
You may want to rate the tab now too:
select rating
Please do not post tabs as comments. Select "correction" instead!