Oops, an error
Loading. Please wait.

Girl You Have No Faith In Medicine Tab

version 1
version 1

Solo

Whole song

Interactive

11,149 views 1 this week
6 commentsread comments
1 2 3 4 5
accurate
x 6
add to favorites
launch autoscroll
font size
0
reset
how to read this tab
guitar tuner
Tab Pro tools
  • play this tab
  • loop segment
  • change instrument
  • show fretboard
  • metronome
×
Best way to learn
"Girl You Have No Faith In Medicine"
Autoscroll
slow
fast
+/-
esc
set tempo
stop
Difficulty
intermediate
this solo requires some quick finger work, 
but it shouldnt be too hard for most.


Tab Special Notations:
----0----  play the open string ('fret zero')
----3----  play fret three
----3~---  play fret three with vibrato
--3b(4-3)--  play fret three, bend the string (at fret three) to reach
             the pitch of fret four, and then bend back to fret three in the same note

----h3---  hammer-on to fret three
----p0---  pull-off to an open string
---0h3---  play the open string and immediately hammer-on to fret
             three
---3p0---  play fret three and immediately pull-off to an open string



(standard tuning)



E|-3b(4-3)-0-h3p0---------------------------------------||
B|----------------h3p0----------------------------------||
G|---------------------h3-h2p0--------------------------||
D|-----------------------------h2p0---------------------||
A|----------------------------------h2p0----------------||
E|---------------------------------------h3h2p0---------||

then the riff is played....

E|-----------------------------| 
B|-----------------------------| 
G|--------------------------2--|  
D|-2--5-5-5--2--5-5-5-5--2--2--|
A|-2--5-5-5--2--5-5-5-5--2--2--| 
E|-0--3-3-3--0--3-3-3-3--0--0--|

part deux...

E|-3~-0-h3p0-----------------------------|
B|-----------h3p0------------------------|
G|----------------h3b(4)-h2p0------------|
D|----------------------------h2p0-------|
A|---------------------------------h2p0--|
E|---------------------------------------|

the riff.......again......

E|-----------------------------| 
B|-----------------------------| 
G|--------------------------2--|  
D|-2--5-5-5--2--5-5-5-5--2--2--|
A|-2--5-5-5--2--5-5-5-5--2--0--| 
E|-0--3-3-3--0--3-3-3-3--0-----|

part 3...

E|-5-5b(6)-5-5-5-3-5-3-5-5b(6)--| 
B|------------------------------| 
G|------------------------------|  
D|------------------------------|
A|------------------------------| 
E|------------------------------|

riff riff riff.....

E|--------------------------------| 
B|--------------------------------| 
G|-2--2-2-2---2-2-2-2-2-----------|  
D|-2--2-2-2-2-2-2-2-2-2--2--5--2--|
A|-0--0-0-0-2-0-0-0-0-0--2--5--2--| 
E|----------0------------0--3--0--|

last part of the solo!

E|--------h3p0-----------------------| 
B|-------------h3p0------------------| 
G|-3b(4)------------h3p0-h3p0-3b(4)--|  
D|-----------------------------------|
A|-----------------------------------| 
E|-----------------------------------|

and the last riff.......

E|-----------------------------| 
B|-----------------------------| 
G|-----------------------------|  
D|-2--5-5-5--2--5-5-5-5--2-----|
A|-2--5-5-5--2--5-5-5-5--2-----| 
E|-0--3-3-3--0--3-3-3-3--0-----|

E|----------------3-3-3-3-3-3-3-3--| 
B|----------------3-3-3-3-3-3-3-3--| 
G|----------------0-0-0-0-0-0-0-0--|  
D|-4-4--7-7--2-2-------------------|
A|-4-4--7-7--2-2-------------------| 
E|-2-2--5-5--0-0-------------------|

E|-------------------------------| 
B|-------------------------------| 
G|-------------------------------|  
D|-2--5-5-5--2--5-5-5-5--2--5-2--|
A|-2--5-5-5--2--5-5-5-5--2--5-2--| 
E|-0--3-3-3--0--3-3-3-3--0--3-0--|
comments
print report bad tab
6 comments total. Showing first comments.
0 reply
Squirrelman wrote on March 21 2006, 05:25 pm

this tab is awesopme but u nedd to bring the 5th fret dowm an octive.
by the way visit my website www.athensidiots.piczo.com

0 reply
100%guitarmad wrote on September 15 2007, 06:38 am

confusing

0 reply
100%guitarmad wrote on November 8 2007, 12:56 pm

is it half a step up or something

I want to post or [tab]
guest
You may want to rate the tab now too:
select rating
Please do not post tabs as comments. Select "correction" instead!