Oops, an error
Loading. Please wait.
We have an official Girl You Have No Faith In Medicine tab made by UG professional guitarists. Check out the tab »
×
2,610 views 6 this week
1 commentread comment
1 2 3 4 5
x 3
add to favorites
×
Save as Personal and add changes to this tab that will be seen only by you. Learn more ›
×
You can save this tab as Personal to edit and correct it or add notes. All changes will be seen only by you. Learn more »
launch autoscroll
font size
0
reset
how to read this tab
guitar tuner
edit
Autoscroll
slow
fast
+/-
esc
set tempo
stop
Author
Difficulty
-----------------------------------------------------------------------------
             Girl you have no faith in medicine - White Stripes
-----------------------------------------------------------------------------
Tabbed by:Jamie C
E-mail:carterj1322 AT gmail.com

Tuning:Standard

So this is pretty much the same as most tabs but with a different chord
voicing (for the G power chord). If you check the live videos on youtube you can confirm
this. Regular power chords sound fine but this sounds closer to the record. To try and
get Jack's sound I use a Big Muff Pi with tone knob at 2-3 o'clock and just enough on 
the sustain to beef it up(maybe 8 o'clock) or you know... LOTS. Then have that on an amp
with some decent overdrive, mid eq
knobs high, bass high and treble low.

This is basically the tab from brokenbricks.com with that one chord voicing change, but
written out in full for those who require a verbose transcription.

solo section fills are from a tab by:
Patrick Ferris (of www.brokenbricks.com which is the BEST white stripes tab collection
ever, very few mistakes if any)

Intro
e|-------------------------------------------------------------------------|
B|--------0---0--0----------0----0---0--0----------------------------------|
G|---1----0---0--0--1-------0----0---0--0--1-------------------------------|
D|---2----0---0--0--2-------0----0---0--0--2-------(Repeat 4x)-------------|
A|---2----x---x--x--2-------x----x---x--x--2-------------------------------|
E|---0----3---3--3--0-------3----3---3--3--0-------------------------------|

e|-------------------------------------------------------------------------|
B|---2----2---2--2----------2----2---2--2----------------------------------|
G|---2----2---2--2--1-------2----2---2--2--1-------------------------------|
D|---2----2---2--2--2-------2----2---2--2--2-------------------------------|
A|---0----0---0--0--2-------0----0---0--0--2-------------------------------|
E|------------------0----------------------0-------------------------------|

e|-------------------------------------------------------------------------|
B|--------0---0--0----------0----0---0--0----------------------------------|
G|---1----0---0--0--1-------0----0---0--0--1-------------------------------|
D|---2----0---0--0--2-------0----0---0--0--2-------------------------------|
A|---2----x---x--x--2-------x----x---x--x--2-------------------------------|
E|---0----3---3--3--0-------3----3---3--3--0-------------------------------|

e|--------------------------------------------3-3-3-3-3--------------------|
B|---4---4-4----------7--7-7-7-------2--2-----2-2-2-2-2--------------------|
G|---4---4-4----------7--7-7-7-------2--2-----2-2-2-2-2--------------------|
D|---4---4-4----------7--7-7-7-------2--2-----2-2-2-2-2--------------------|
A|---2---2-2----------5--5-5-5-------0--0----------------------------------|
E|-------------------------------------------------------------------------|

e|-------------------------------------------------------------------------|
B|--------0---0--0----------0----0---0--0----------------------------------|
G|---1----0---0--0--1-------0----0---0--0--1-------------------------------|
D|---2----0---0--0--2-------0----0---0--0--2-------------------------------|
A|---2----x---x--x--2-------x----x---x--x--2-------------------------------|
E|---0----3---3--3--0-------3----3---3--3--0-------------------------------|

Chorus
e|-------------------------------------------------------------------------|
B|--------0---0--0----------0----0---0--0----------------------------------|
G|---1----0---0--0--1-------0----0---0--0--1-------------------------------|
D|---2----0---0--0--2-------0----0---0--0--2-------(Repeat 2x)-------------|
A|---2----x---x--x--2-------x----x---x--x--2-------------------------------|
E|---0----3---3--3--0-------3----3---3--3--0-------------------------------|

e|-------------------------------------------------------------------------|
B|---2----2---2--2----------2----2---2--2----------------------------------|
G|---2----2---2--2--1-------2----2---2--2--1-------------------------------|
D|---2----2---2--2--2-------2----2---2--2--2-------------------------------|
A|---0----0---0--0--2-------0----0---0--0--2-------------------------------|
E|------------------0----------------------0-------------------------------|

e|-------------------------------------------------------------------------|
B|--------0---0--0----------0----0---0--0----------------------------------|
G|---1----0---0--0--1-------0----0---0--0--1-------------------------------|
D|---2----0---0--0--2-------0----0---0--0--2-------------------------------|
A|---2----x---x--x--2-------x----x---x--x--2-------------------------------|
E|---0----3---3--3--0-------3----3---3--3--0-------------------------------|

e|-------------------------------------------------------------------------|
B|---4----4----4--4--4--4-----7-----7-----7---7---7---7--------------------|
G|---4----4----4--4--4--4-----7-----7-----7---7---7---7--------------------|
D|---4----4----4--4--4--4-----7-----7-----7---7---7---7--------------------|
A|---2----2----2--2--2--2-----5-----5-----5---5---5---5--------------------|
E|-------------------------------------------------------------------------|


Verse
e|-------------------------------------------------------------------------|
B|--------0---0--0----------0----0---0--0----------------------------------|
G|---1----0---0--0--1-------0----0---0--0--1-------------------------------|
D|---2----0---0--0--2-------0----0---0--0--2-------------------------------|
A|---2----x---x--x--2-------x----x---x--x--2-------------------------------|
E|---0----3---3--3--0-------3----3---3--3--0-------------------------------|

e|-------------------------------------------------------------------------|
B|-------------------------------------------------------------------------|
G|---1---------------------------------------------------------------------|
D|---2---------------------------------------------------------------------|
A|---2---------------------------------------------------------------------|
E|---0---------------------------------------------------------------------|

e|-------------------------------------------------------------------------|
B|--------0---0--0----------0----0---0--0----------------------------------|
G|---1----0---0--0--1-------0----0---0--0--1-------------------------------|
D|---2----0---0--0--2-------0----0---0--0--2-------------------------------|
A|---2----x---x--x--2-------x----x---x--x--2-------------------------------|
E|---0----3---3--3--0-------3----3---3--3--0-------------------------------|

e|-------------------------------------------------------------------------|
B|-------------------------------------------------------------------------|
G|---1---------------------------------------------------------------------|
D|---2---------------------------------------------------------------------|
A|---2---------------------------------------------------------------------|
E|---0---------------------------------------------------------------------|

e|-------------------------------------------------------------------------|
B|--------0---0--0----------0----0---0--0----------------------------------|
G|---1----0---0--0--1-------0----0---0--0--1-------------------------------|
D|---2----0---0--0--2-------0----0---0--0--2-------------------------------|
A|---2----x---x--x--2-------x----x---x--x--2-------------------------------|
E|---0----3---3--3--0-------3----3---3--3--0-------------------------------|

e|-------------------------------------------------------------------------|
B|---2---------------------------------------------------------------------|
G|---2---------------------------------------------------------------------|
D|---2---------------------------------------------------------------------|
A|---0---------------------------------------------------------------------|
E|-------------------------------------------------------------------------|

e|-------------------------------------------------------------------------|
B|---2----2---2--2----------2----2---2--2----------------------------------|
G|---2----2---2--2--1-------2----2---2--2--2-------------------------------|
D|---2----2---2--2--2-------2----2---2--2--2-------------------------------|
A|---0----0---0--0--2-------0----0---0--0--2-------------------------------|
E|------------------0----------------------0-------------------------------|

e|-------------------------------------------------------------------------|
B|-------------------------------------------------------------------------|
G|---1---------------------------------------------------------------------|
D|---2---------------------------------------------------------------------|
A|---2---------------------------------------------------------------------|
E|---0---------------------------------------------------------------------|

e|-------------------------------------------------------------------------|
B|--------0---0--0----------0----0---0--0----------------------------------|
G|---1----0---0--0--1-------0----0---0--0--1-------------------------------|
D|---2----0---0--0--2-------0----0---0--0--2-------------------------------|
A|---2----x---x--x--2-------x----x---x--x--2-------------------------------|
E|---0----3---3--3--0-------3----3---3--3--0-------------------------------|

e|-------------------------------------------------------------------------|
B|---4----4----4--4--4--4-----7-----7-----7---7---7---7--------------------|
G|---4----4----4--4--4--4-----7-----7-----7---7---7---7--------------------|
D|---4----4----4--4--4--4-----7-----7-----7---7---7---7--------------------|
A|---2----2----2--2--2--2-----5-----5-----5---5---5---5--------------------|
E|-------------------------------------------------------------------------|

Solo
e|-----------3b4r-----3p0--------------------------------------------------|
B|------------------------3p0----------------------------------------------|
G|---1------------------------2b3----2p0-----------------------------------|
D|---2-----------------------------------2p0-------------------------------|
A|---2---------------------------------------2p0---------------------------|
E|---0-------------------------------------------3p0-----------------------|

e|-------------------------------------------------------------------------|
B|--------0---0--0----------0----0---0--0----------------------------------|
G|---1----0---0--0--1-------0----0---0--0--1-------------------------------|
D|---2----0---0--0--2-------0----0---0--0--2-------------------------------|
A|---2----x---x--x--2-------x----x---x--x--2-------------------------------|
E|---0----3---3--3--0-------3----3---3--3--0-------------------------------|

e|------------3~~~~~~--3p0-------------------------------------------------|
B|----------X--------------3p0---------------------------------------------|
G|---1-------------------------2b3r------2p0-------------------------------|
D|---2---------------------------------------2p0---------------------------|
A|---2---------------------------------------------------------------------|
E|---0---------------------------------------------------------------------|

e|-------------------------------------------------------------------------|
B|--------0---0--0----------0----0---0--0----------------------------------|
G|---1----0---0--0--1-------0----0---0--0--1-------------------------------|
D|---2----0---0--0--2-------0----0---0--0--2-------------------------------|
A|---2----x---x--x--2-------x----x---x--x--2-------------------------------|
E|---0----3---3--3--0-------3----3---3--3--0-------------------------------|

e|----------4b5-5b4--b5-b5-b5-b5-4b-b5-b5-4b-b5-b5-5b4---------------------|
B|---2---------------------------------------------------------------------|
G|---2---------------------------------------------------------------------|
D|---2---------------------------------------------------------------------|
A|---0---------------------------------------------------------------------|
E|-------------------------------------------------------------------------|

e|-------------------------------------------------------------------------|
B|---2----2---2--2----------2----2---2--2----------------------------------|
G|---2----2---2--2--1-------2----2---2--2--2-------------------------------|
D|---2----2---2--2--2-------2----2---2--2--2-------------------------------|
A|---0----0---0--0--2-------0----0---0--0--2-------------------------------|
E|------------------0----------------------0-------------------------------|

                       these VVVVV harmonics are on the third fret

e|---------------3-0--1-0--0-+-+-+-----------------------------------------|
B|----------3b4--------------------4b3-------------------------------------|
G|---1------3b4------------------------------------------------------------|
D|---2---------------------------------------------------------------------|
A|---2---------------------------------------------------------------------|
E|---0---------------------------------------------------------------------|

e|-------------------------------------------------------------------------|
B|-------------------------------------------------------------------------|
G|---1----0---0--0--1-------0----0---0--0--1-------------------------------|
D|---2----0---0--0--2-------0----0---0--0--2-------------------------------|
A|---2----x---x--x--2-------x----x---x--x--2-------------------------------|
E|---0----3---3--3--0-------3----3---3--3--0-------------------------------|

e|--------------------------------------------3-3-3-3-3--------------------|
B|---4---4-4----------7--7-7-7-------2--2-----2-2-2-2-2--------------------|
G|---4---4-4----------7--7-7-7-------2--2-----2-2-2-2-2--------------------|
D|---4---4-4----------7--7-7-7-------2--2-----2-2-2-2-2--------------------|
A|---2---2-2----------5--5-5-5-------0--0----------------------------------|
E|-------------------------------------------------------------------------|

The ending verse has a ringing open strum at the end of the lines which is done by
strumming behind the bridge (a lot of guitars don't have this feature but jack's airline and
my jazzmaster do, if you have a more common tailpiece setup like a strat or tele then 
you can do it at the OTHER end of the guitar behind the nut)

UPDATED LAST 11/20/13

************************************

| /   slide up
| \   slide down
| h   hammer-on
| p   pull-off
| ~   vibrato
| +   harmonic
| x   Mute note
| b   Bend
| pb  Pre-bend
| br  Bend release
| pbr Pre-bend release
| brb Bend release bend

************************************

            
            
Suggest correction
Creating personal tab
Creating personal tab
You can edit any tab online and save it as your Personal.

You can edit, replace or remove any tab part or add personal notes – all changes will be seen only by you.

Personal tabs can be accessed anytime from any device, even offline.
Learn more »
Give kudos to tab author, rate the tab!
1 2 3 4 5
comments
print report bad tab
1 comment total.
0 reply
bensickles 10 Jan 02, 2013 11:59 PM

this is perfect, though i don't have any pedals or big muff, thanks though :D

guest
You may want to rate the tab now too:
select rating
Wanna post a correction for this tab? Suggest correction