Oops, an error
Loading. Please wait.

Hello Operator Tab

version 2
version 2

Whole song

Interactive

86,853 views 165 this week
4 commentsread comments
1 2 3 4 5
excellent!
x 32
add to favorites
launch autoscroll
font size
0
reset
how to read this tab
guitar tuner
Tab Pro tools
  • play this tab
  • loop segment
  • change instrument
  • show fretboard
  • metronome
Autoscroll
slow
fast
+/-
esc
set tempo
stop
Contributor
Difficulty
intermediate
You need to bend the notes the right amount..otherwise it wont sound right..and i
dont know enough about guitar notation to show you. Or maybe jack is just too sloppy
and inconsistant..or maybe I am. Either way, all the correct notes are there.

Intro/Interlude-
e|----------------------------------------------|
b|-----5^-6-6-6-6^\-5^-6-5^-6-6^-6-5^-6-4^------|
G|-----------------------------------------6-7^-|
D|-3--------------------------------------------|
A|-3--------------------------------------------|
E|-1--------------------------------------------|

Verse 1-
e|-------------------------------------------------------------------------|
b|---------------5^-4--------------------5^------2---------------5^-4------|
G|-3------------------6-3^-------------------------3------------------6-3^-|
D|-3-----------------------3-----------------------1-----------------------|
A|-1-----------------------3-----------------------1-----------------------|
E|-------------------------1-----------------------------------------------|

e|---------------4----------|
b|-----------------4^-------|
G|--------------------------|
D|-3------------------------|
A|-3------------------------|
E|-1------------------------|

e|------------------------------------------------------------------------|
b|--------------------------------------------------------------5^-4------|
G|-3---------------------------------------------3-------------------6-3^-|
D|-3-----------------------3---------------------3------------------------|
A|-1-----------------------3---------------------1------------------------|
E|-------------------------1----------------------------------------------|

e|-----------------------|
b|-----------------------|
G|-----------------------|
D|-3---------------------|
A|-3---------------------|
E|-1---------------------|

e|------------------------------------------------------------------------|
b|----------------5^------2-----------------------------------------------|
G|-3------------------------------------------------3---------------------|
D|-3------------------------3-----------------------3---------------------|
A|-1------------------------3-----------------------1---------------------|
E|--------------------------1---------------------------------------------|

e|---------------------------------------------------|
b|---------------------------------------------------|
G|--------------------------3------------------------|
D|-3------------------------3------------------------|
A|-3------------------------1------------------------|
E|-1-------------------------------------------------|

Chorus-
e|----------------------------------------4--------|
b|----------------5^------------------------4^-----|
G|-6-6--6------------------6-6--6----8--8----------|
D|-6-6--6-6--8--8----------6-6--6-6--8--8----------|
A|-4-4--4-6--8--8----------4-4--4-6--6--6----------|
E|--------4--6--6-----------------4----------------|

e|-------------------------------------------------|
b|----------------/6-5^-4---------------------4-5^-|
G|-6-6--6----------------6-3--------------3-6------|
D|-6-6--6-6--8--8----------6-6--6-5--3--3----------|
A|-4-4--4-6--8--8----------6-6--6-5--3--3----------|
E|--------4--6--6----------4-4--4-3--1--1----------|

e|----------------5^-------------------------------|
b|----------------------------------------5^--4----|
G|-6-6--6------------------6-6--6----8--8-------6^-|
D|-6-6--6-6--8--8----------6-6--6-6--8--8----------|
A|-4-4--4-6--8--8----------4-4--4-6--6--6----------|
E|--------4--6--6-----------------4----------------|

e|----------------6\--------------|
b|--------------------------------|
G|-6-6--6------------------8-8--9-|
D|-6-6--6-6--8--8----------8-8--9-|
A|-4-4--4-6--8--8----------6-6--7-|
E|--------4--6--6-----------------|

Interlude 2-
e|------------------------------------------|
b|-------5^-6-5-6-5^-6-6-6-6-6-5^-6-4^------|
G|-10\---------------------------------6-7^-|
D|-10\--------------------------------------|
A|--8\--------------------------------------|
E|------------------------------------------|

Verse 2-
e|-----------------------------------------------------------------4------|
b|---------------5^-4--------------------5^------2--------------5^---4^\--|
G|-3------------------6-3^-------------------------3----------------------|
D|-3-----------------------3-----------------------3----------------------|
A|-1-----------------------3-----------------------1----------------------|
E|-------------------------1----------------------------------------------|

e|-------------------------|
b|----------5-6-6-5^-4-----|
G|---------------------6-3-|
D|-3-----------------------|
A|-3-----------------------|
E|-1-----------------------|

e|------------------------------------------------------------------------|
b|--------------------------------------------------------------5^-----2--|
G|-3---------------------------------------------3------------------------|
D|-3-----------------------3---------------------3------------------------|
A|-1-----------------------3---------------------1------------------------|
E|-------------------------1----------------------------------------------|

e|-----------------------|
b|-----------------------|
G|-----------------------|
D|-3---------------------|
A|-3---------------------|
E|-1---------------------|

e|------------------------------------------------------------------------|
b|----------------5^------------------------------------------------------|
G|-3------------------------------------------------3---------------------|
D|-3------------------------3-----------------------3---------------------|
A|-1------------------------3-----------------------1---------------------|
E|--------------------------1---------------------------------------------|

e|---------------------------------------------------|
b|---------------------------------------------------|
G|--------------------------3------------------------|
D|-3------------------------3------------------------|
A|-3------------------------1------------------------|
E|-1-------------------------------------------------|

Chorus (without fills)

Interlude 3-

e|---------------------------------------------|
b|-------6-5-6-5-6-5-6-6-6-6^-6-6-6-6-6-4------|
G|-10\------------------------------------6-7^-|
D|-10\-----------------------------------------|
A|--8\-----------------------------------------|
E|---------------------------------------------|

Outro- Fade out with muted strumming pattern in between 
e|---|     e|---|
b|---|     b|---|
G|-3-|     G|---|
D|-3-| and D|-3-| and a fill i already tabbed. You need to fade 
A|-1-|     A|-3-| out..otherwise it wont sound right.
E|---|     E|-1-|
comments
print report bad tab
4 comments total. Showing first comments.
0 reply
fatboy023456 wrote on December 25 2005, 07:45 am

I'm pretty sure the chorus is:

|------------|------------|
|------------|------------|
|6-6---------|6-6-----8-8-|
|6-6-6-6-8-8-|6-6-6-6-8-8-|
|4-4-6-6-8-8-|4-4-6-6-6-6-|
|----4-4-6-6-|----4-4-----|

+2 reply
WhiteStripesIII wrote on June 9 2006, 04:21 pm

YAY! You didn't steal it from brokenbricks!

0 reply
Led4evermore wrote on March 11 2007, 08:30 pm

This is a AWESOME tab!!!! nice job

I want to post or [tab]
guest
You may want to rate the tab now too:
select rating
Please do not post tabs as comments. Select "correction" instead!