Oops, an error
Loading. Please wait.

Hello Operator Tab

version 3
version 3

Whole song

Interactive

14,318 views 18 this week
5 commentsread comments
1 2 3 4 5
accurate
x 5
add to favorites
launch autoscroll
font size
0
reset
how to read this tab
guitar tuner
Tab Pro tools
  • play this tab
  • loop segment
  • change instrument
  • show fretboard
  • metronome
×
Best way to learn
"Hello Operator"
Autoscroll
slow
fast
+/-
esc
set tempo
stop
Contributor
Hello Operator by the White Stripes
De Stijl (2002)
(standard tuning)
  _________
 / Symbols \______________________________
|`````````````````````````````````````````\
| h   hammer on      /   slide up         |
| p   pull off       \   slide down       |
| b   bend           *   natural harmonic |
| pb  pre bend       tr  trill            |
| r   release bend   x   dead note        |
| (#) muted note     ra  rake             |
 *****************************************

     :01                :02          :03               :04   :05
|---------------------------------------------------------------|
|---------------------------------------------------------------|
|-----8b---8pb-8pb--8pb-8r---8pb-8pb-8-8pb-8r--8pb-8pb--8r--6-7-|
|---------------------------------------------------------------|
|--3------------------------------------------------------------|
|--1------------------------------------------------------------|


      :06   :07      :08  :09   :10    :11  :12    :13  :14  :15
|------------------------------------------------------------------|
|------------8brp6------------8pb-rp6------8brp6------------9------|
|------------------9-----------------------------9------------8br--|
|------------------------------------------------------------------|
|--8------------------3-----------------8-----------3--------------|
|--6------------------1-----------------6-----------1--------------|


   :16 :17 :18 :19 :20 :21 :22 :23 :24 :25 :26 :27 :28 :29 :30 :31
|------------------------------------------------------------------|
|------------------------8brp7-----------------8pb-----------------|
|------------------------------8-----------------------------------|
|------------------------------------------------------------------|
|--8--------3---------8----------3--------8--------3---------8-----|
|--6--------1---------6----------1--------6--------1---------6-----|


 :32 :33 :34 :35
-------------------|
-------------------|
-------------------|
-------------------|
------3---------8--|
------1---------6--|


  :47    :48     :49 :50       :51   :52 :53 :54       :55
|-------------------------------------------------------------------|
|------------------------------------9------------------------------|
|-------------------8b----------------8b---------------8b-8b-8rp6---|
|--6--6--6------------6--6--6---8--8----6--6--6------------------8--|
|--4--4--4-6--8--8----4--4--4-6-6--6----4--4--4-6--8--8-------------|
|----------4--6--6------------4-----------------4--6--6-------------|


                :56   :57    :58      :59  1:00 1:01     1:02   1:03
----------------------------------------------------------------------|
----------------------------------------8b----------------------------|
------------------6-7-8b-----------------------------------8pb-r8-6---|
-----------------8-------6--6--6-----------6--6--6---8--8-------------|
--6--6--6-5--3--3--------4--4--4-6--8--8---4--4--4-6-6--6-------------|
--4--4--4-3--1--1----------------4--6--6-----------4------------------|


       1:04     1:05  1:06  1:07    1:08     1:09        1:10        1:11
--------------------------------------------------------------------------|
-----------------9\-------------------------------------------------------|
---------------------------------8b--8pb-8-8-8b-8pb--8pb-8pb-8-8pb-8r-6-7-|
--6--6--6-----------8--8-8-9-10-------------------------------------------|
--4--4--4-6--8--8---6--6-6-7-8--------------------------------------------|
----------4--6--6---------------------------------------------------------|


  1:12 1:13    1:14 1:15 1:16 1:17 1:18 1:19 1:21            1:22
|-----------------------------------------------------------------|
|--------------------------------------9--------------------------|
|--------8br-p6------------8pb-rp6---8b-8r----8pb-8pb-8r-8-8-6----|
|--------------8----------------------------------------------8---|
|--8----------------3--------------8--------3---------------------|
|--6----------------1--------------6--------1---------------------|


  1:22    1:24      1:27  1:29 1:30      1:33   1:34       1:37
|------------------------------------------------------------------|
|------------------------8brp7-----------------8pb-----------------|
|------------------------------8-----------------------------------|
|------------------------------------------------------------------|
|--8--------3---------8----------3--------8--------3---------8-----|
|--6--------1---------6----------1--------6--------1---------6-----|


      1:40    1:42
-------------------|
-------------------|
-------------------|
-------------------|
------3---------8--|
------1---------6--|


  1:53  1:54    1:55  1:56       1:57   1:59        2:00  2:01       2:03
|------------------------------------------------------------------------|
|------------------------------------------------------------------------|
|------------------------------------------------------------------------|
|--6--6--6------------6--6--6----8--8--6--6--6---------------------------|
|--4--4--4-6--8--8----4--4--4-6--6--6--4--4--4-6--8--8--6--6--6-5--3--3--|
|----------4--6--6------------4----------------4--6--6--4--4--4-3--1--1--|


  2:04      2:05    2:06    2:07   2:08 2:09          2:11         2:13
|------------------------------------------------------------------------|
|------------------------------------------------------------------------|
|------------------------------------------------------------------------|
|--6--6--6------------6--6--6----8--8----6--6--6-----------8--8-8-9-10---|
|--4--4--4-6--8--8----4--4--4-6--6--6----4--4--4-6--8--8---6--6-6-7-8----|
|----------4--6--6------------4------------------4--6--6-----------------|


   2:14            2:15     2:16    2:17   2:18
|--------------------------------------------------|
|--------------------------------------------------|
|--8pb-8-8pb-8-pb-8-8pb--8pb-8pb-8pb-8pb-8r-6-7----|
|--------------------------------------------------|
|--------------------------------------------------|
|--------------------------------------------------|


 2:19        2:20   2:21        2:23      2:24          2:26
|---------------------------------------------------------------|
|----------------8b---------------------------------------------|
|---------------------------------------------------------------|
|---------------------------------------------------------------|
|--8--x--x-x--x-x---3--3-x--x-x-x--x-x-x--8-(8)-x-x--x--x-x-x---|
|--6--x--x-x--x-x---1--1-x--x-x-x--x-x-x--6-(8)-x-x--x--x-x-x---|
last part repeats 3 times to the end.
comments
print report bad tab
5 comments total. Showing first comments.
+1 reply
ruvik wrote on July 26 2008, 07:10 pm

version 2 - is the right

0 reply
futureLlama wrote on October 7 2010, 02:31 am

^version two sucks, sorry but it aint even complete. This is a much better and more detailed tab.

0 reply
bensickles wrote on December 22 2012, 09:46 pm

this is much better than version 2 thanks :)

I want to post or [tab]
guest
You may want to rate the tab now too:
select rating
Please do not post tabs as comments. Select "correction" instead!