Oops, an error
Loading. Please wait.

Hypnotize Tab

version 3
version 3

Whole song

Interactive

1,192 views 3 this week
1 commentread comment
1 2 3 4 5
worth learning
x 5
add to favorites
launch autoscroll
font size
0
reset
how to read this tab
guitar tuner
Tab Pro tools
  • play this tab
  • loop segment
  • change instrument
  • show fretboard
  • metronome
Autoscroll
slow
fast
+/-
esc
set tempo
stop
this song is pretty fast but easy to play. im sure its 99% right.
here it is!



riff 1

e|---------------------------|
b|---------------------------|
g|---2-22--5-55--999--5-55---|
d|---2-22--5-55--999--5-55---| x3
a|---0-00--3-33--777--3-33---|
e|---------------------------|


riff 2

e|-------------------
b|-------------------
g|--2-22-222-----2---
d|--2-22-222-3-5-2---
a|--0-00-000-3-5-0---
e|-----------1-3-----

riff 3

e|-----------------------------------------------
b|-----------------------------------------------
g|---2-22--5-55--999--5-55--9-99-9-10-9-99-9-9---
d|---2-22--5-55--999--5-55--9-99-9-10-9-99-9-9---
a|---0-00--3-33--777--3-33--7-77-7-8--7-77-7-7---
e|-----------------------------------------------


riff 4

e|-----------------------------------------------
b|-----------------------------------------------
g|--2-22--5-55-999-5-55--10-1010--7-77--999-22---
d|--2-22--5-55-999-5-55---8--8-8--7-77--999-22---
a|--0-00--3-33-777-3-33---8--8-8--5-55--777-00---
e|-----------------------------------------------

after that play the riffs in this order:
 riff 1 
 riff 2 
 riff 1 
 riff 2 
 riff 3
 riff 4
 riff 1
 riff 2

this part just comes in after that riff order
use lots of destortion with this bit

e|-------------------------------------------------------------------
b|-------------------------------------------------------------------
g|-------------------------------------------------------------------
d|-------------------------------------------------------------------
a|---0-0-0-0-0-0-0-0-0-0-0-0-0-0-0-0-0-0-0-0-0-0-0-0-0-0-0-0-0-0-0-0-
e|-------------------------------------------------------------------

e|------------------
b|------------------
g|------------------
d|------------------  x3
a|------------------
e|0-1-1-1-1-3-3-3-3-

e|--------------------------------------
b|--------------------------------------
g|--------------------------------------
d|--------------------------------------
a|--0-0-0-0-0-0-0-0---------------------
e|------------------0-1-1-1-1-3-3-3-3---

e|----------
b|---------- just play this until it goes back to riff 1
g|----------
d|----------
a|----------
e|--0-0-0-0-

 riff 1 x5
 riff 2 x1
 riff 3 x1
 riff 4 x1
 riff 1

outro

e|--------------------------------||
b|--------------------------------||
g|--------------------------------||
d|--2-22-2-2-2-22-2-2-2-22-2-2-2--||
a|--0-00-0-0-0-00-0-0-0-00-0-0-0--||
e|--------------------------------||
 
im sure its right.
hope u like it!
comments
print report bad tab
1 comment total.
0 reply
samlynch wrote on June 24 2005, 12:00 am

version 1s best

I want to post or [tab]
guest
You may want to rate the tab now too:
select rating
Please do not post tabs as comments. Select "correction" instead!