Oops, an error
Loading. Please wait.

Hypnotize Tab

version 4
version 4

Whole song

Interactive

40,959 views 15 this week
9 commentsread comments
1 2 3 4 5
excellent!
x 28
add to favorites
launch autoscroll
font size
0
reset
how to read this tab
guitar tuner
Tab Pro tools
  • play this tab
  • loop segment
  • change instrument
  • show fretboard
  • metronome
×
Best way to learn
"Hypnotize"
Autoscroll
slow
fast
+/-
esc
set tempo
stop
Contributor
The White Stripes - Hypnotize

Tabbed by: ChrKr
Email: chrkr@gmx.at

Tuning: Standard


Intro & Verse:

  Asus4   C         E     C          Asus4   C         E     C     
e|----------------------------------|----------------------------------|
B|--------5---5-x---9---9-5---5-x-x-|--------5---5-x---9---9-5---5-x-x-|
G|7---7-x-5---5-x---9---9-5---5-x-x-|7---7-x-5---5-x---9---9-5---5-x-x-|
D|7---7-x-5---5-x---9---9-5---5-x-x-|7---7-x-5---5-x---9---9-5---5-x-x-|
A|7---7-x-3---3-x---7---7-3---3-x-x-|7---7-x-3---3-x---7---7-3---3-x-x-|
E|5---5-x---------------------------|5---5-x---------------------------|




  Asus4   C         E     C          Asus4             F5  G   A      
e|----------------------------------|--------------------------------|
B|--------5---5-x---9---9-5---5-x-x-|--------------------------------|
G|7---7-x-5---5-x---9---9-5---5-x-x-|7---7-7---7-7-7-----------6-----|
D|7---7-x-5---5-x---9---9-5---5-x-x-|7---7-7---7-7-7-----------7-----|
A|7---7-x-3---3-x---7---7-3---3-x-x-|7---7-7---7-7-7---3-------7-----|
E|5---5-x---------------------------|5---5-5---5-5-5---1---3---5-----|
  ...hypnotize you baby on the telephone...




  Asus4   C         E     C          E             F  E
e|----------------------------------|--------------------------------|
B|--------5---5-x---9---9-5---5-x-x-|9---9-9---9------9--9-9---9-----|
G|7---7-x-5---5-x---9---9-5---5-x-x-|9---9-9---9---10-9--9-9---9-----|
D|7---7-x-5---5-x---9---9-5---5-x-x-|9---9-9---9---10-9--9-9---9-----|
A|7---7-x-3---3-x---7---7-3---3-x-x-|7---7-7---7----8-7--7-7---7-----|
E|5---5-x---------------------------|--------------------------------|
               ...just to hear the tone...



  Asus4   C         E     C          F          D         E     C
e|----------------------------------|-------------------------------------|
B|--------5---5-x---9---9-5---5-x-x-|-------x---7---7-x---9---9-5---5-x-x-|
G|7---7-x-5---5-x---9---9-5---5-x-x-|10--10-x---7---7-x---9---9-5---5-x-x-|
D|7---7-x-5---5-x---9---9-5---5-x-x-|10--10-x---7---7-x---9---9-5---5-x-x-|
A|7---7-x-3---3-x---7---7-3---3-x-x-|8---8--x---5---5-x---7---7-3---3-x-x-|
E|5---5-x---------------------------|-------------------------------------|
                       ...I didn't mind so much...


  Asus4   C         E     C          Asus4             F5  G   A      
e|----------------------------------|--------------------------------|
B|--------5---5-x---9---9-5---5-x-x-|--------------------------------|
G|7---7-x-5---5-x---9---9-5---5-x-x-|7---7-7---7-7-7-----------6-----|
D|7---7-x-5---5-x---9---9-5---5-x-x-|7---7-7---7-7-7-----------7-----|
A|7---7-x-3---3-x---7---7-3---3-x-x-|7---7-7---7-7-7---3-------7-----|
E|5---5-x---------------------------|5---5-5---5-5-5---1---3---5-----|



  A
e|--------------------------------|--------------------------------|
B|--------------------------------|--------------------------------|
G|--------------------------------|--------------------------------|
D|--------------------------------|--------------------------------|
A|--------------------------------|--------------------------------|
E|5-5-5-5-5-5-5-5-5-5-5-5-5-5-5-5-|5-5-5-5-5---5-5-5-5-5-5-5-5-5-5-|


  E F    E G      E A
e|--------------------------------|--------------------------------|
B|--------------------------------|--------------------------------|
G|--------------------------------|--------------------------------|
D|--------------------------------|--------------------------------|
A|--------------------------------|--------------------------------|
E|0-1-1-1-0-3-3-3-0-5-5-5-5-5-5-5-|5-5-5-5-5-5-5-5-5-5-5-5-5-5-5-5-|



  E F    E G      E A
e|--------------------------------|--------------------------------|
B|--------------------------------|--------------------------------|
G|--------------------------------|--------------------------------|
D|--------------------------------|--------------------------------|
A|--------------------------------|--------------------------------|
E|0-1-1-1-0-3-3-3-0-5-5-5-5-5-5-5-|5-5-5-5-5-5-5-5-5-5-5-5-5-5-5-5-|




  E F    E G      E A              E F     E G     E A
e|--------------------------------|--------------------------------|
B|--------------------------------|--------------------------------|
G|--------------------------------|--------------------------------|
D|--------------------------------|--------------------------------|
A|--------------------------------|--------------------------------|
E|0-1-1-1-0-3-3-3-0-5-5-5-5-5-5-5-|0-1-1-1-0-3-3-3-0-5-5-5-5-5-5-5-|



  E 
e|--------------------------------|--------------------------------|
B|--------------------------------|--------------------------------|
G|--------------------------------|--------------------------------|
D|--------------------------------|--------------------------------| x2
A|--2-2-2-2-2-2-2-2-2-2-2-2-2-2-2-|2-2-2-2-2-2-2-2-2-2-2-2-2-2-2-2-|
E|0-0-0-0-0-0-0-0-0-0-0-0-0-0-0-0-|0-0-0-0-0-0-0-0-0-0-0-0-0-0-0-0-|




Verse again, with one difference:


  Asus4   C         E     C          F          D         E D C A5   
e|----------------------------------|-----------------------------------|
B|--------5---5-x---9---9-5---5-x-x-|-------x---7---7-x---9-7-5---------|
G|7---7-x-5---5-x---9---9-5---5-x-x-|10--10-x---7---7-x---9-7-5---------|
D|7---7-x-5---5-x---9---9-5---5-x-x-|10--10-x---7---7-x---9-7-5-7-------|
A|7---7-x-3---3-x---7---7-3---3-x-x-|8---8--x---5---5-x---7-5-3-7-------|
E|5---5-x---------------------------|---------------------------5-------|
                       ...just decide if you wanna keep holding on...


Coda:


  Asus4   C         E     C        Asus4   
e|----------------------------------|----------------------------------|
B|--------5---5-x---9---9-5---5-x-x-|----------------------------------|
G|7---7-x-5---5-x---9---9-5---5-x-x-|7---7-7---7-7-7---7---7-7---7-7-7-|
D|7---7-x-5---5-x---9---9-5---5-x-x-|7---7-7---7-7-7---7---7-7---7-7-7-|
A|7---7-x-3---3-x---7---7-3---3-x-x-|7---7-7---7-7-7---7---7-7---7-7-7-|
E|5---5-x---------------------------|5---5-5---5-5-5---5---5-5---5-5-5-|


  Asus4   
e|----------------------------------|----------------------------------|
B|----------------------------------|----------------------------------|
G|7---7-7---7-7-7---7---7-7---7-7-7-|7---7-7---7-7-7---7---7-7---7-7-7-|
D|7---7-7---7-7-7---7---7-7---7-7-7-|7---7-7---7-7-7---7---7-7---7-7-7-|
A|7---7-7---7-7-7---7---7-7---7-7-7-|7---7-7---7-7-7---7---7-7---7-7-7-|
E|5---5-5---5-5-5---5---5-5---5-5-5-|5---5-5---5-5-5---5---5-5---5-5-5-|

  Asus4
e|---------|
B|---------|
G|7--------|
D|7--------|
A|7--------|
E|5--------|
comments
print report bad tab
9 comments total. Showing first comments.
0 reply
samlynch wrote on June 24 2005, 12:00 am

di d u t ak e it fro mt heb ook?

0 reply
Dr FeelGood wrote on January 7 2006, 01:52 am

dude, learn to type!

0 reply
spissinger wrote on June 5 2006, 08:06 am

great tab, but i rather like to play it in the easy way...

I want to post or [tab]
guest
You may want to rate the tab now too:
select rating
Please do not post tabs as comments. Select "correction" instead!