Oops, an error
Loading. Please wait.

I Just Dont Know What To Do With Myself Chords

version 2
version 2

Whole song

Interactive

Video

164,108 views 372 this week
7 commentsread comments
1 2 3 4 5
accurate
x 47
add to favorites
launch autoscroll
font size
0
reset
transpose
0
reset
simplify chords
display chords
guitar tuner
Tab Pro tools
  • play this tab
  • loop segment
  • change instrument
  • show fretboard
  • metronome
×
Best way to learn
"I Just Dont Know What To Do With Myself"
Autoscroll
slow
fast
+/-
esc
set tempo
stop
The White Stripes
'I Just Don't Know What To Do With Myself'
Album: Elephant

Tabbed by Matthew "Eddie" Chan
guitar_wing@hotmail.com


Intro

e---3------3------0---0---0---0------3-----------------------
B---3------3------1---1---1---1------3-----------------------
G---0------0------0---0---0---0------0-----------------------
D---0------0------2---2---2---2------0------0---0------------
A---2------2------3---3---3---3------2---------------3---2---
E---3------3-------------------------3-----------------------



             G            C       G         G (2 strums)
I just don't know what to do with myself
        G            C       G         G (2 strums)
I don't know what to do with myself
Am        F
planning everything for two
Am    F
doing everything with you
     E             Am
and now that we're through
             G            C   G
I just don't know what to do--

             G            C       G        G (2 strums)
I just don't know what to do with myself
        G       C            G           G (2 strums)
I don't know what to do with myself
Am     F
movies only make me sad
Am      F
parties make me feel as bad
      E            Am
cause I'm not with you
             G           C    G
I just don't know what to do--

(add distortion for chorus)

CHORUS

G5            
like a summer rose
                  F5
needs the sun and rain
            Bb5   
I need your sweet love
F5           C5
to beat love away

(Clean sound)

G            C            G               G (2 strums)
I just don't know what to do with myself
G           C            G              G (2 strums)
just don't know what to do with myself
Am        F
planning everything for two
Am    F
doing everything with you
    E              Am
and now that we're through
             G           C    G
I just don't know what to do--

(add distortion)

G5          
like a summer rose
                  F5
needs the sun and rain
            Bb5
I need your sweet love
F5           C5
to beat love away

For the outro, add this riff on the end of each line:

e---------------------------------
B-----15----15-----13-----12------
G---------------------------------
D---------------------------------
A---------------------------------
E---------------------------------

(still distortion)

             G            C       G     *riff*
I just don't know what to do with myself
           G            C       G      *riff*
just don't know what to do with myself
           G            C       G     *riff*
just don't know what to do with myself
        G            C       G      
I don't know what to do with myself

(End with A clean G)

Enjoy!!

Rock oN
comments
print report bad tab
7 comments total. Showing first comments.
+2 reply
J_master26 wrote on July 26 2004, 12:00 am

i think the riff you do on the distortion is higher than the first one

+4 reply
Stormx wrote on January 13 2009, 11:34 am

G F G during the distorted bit, not G C G

+2 reply
harstar wrote on September 28 2009, 05:40 pm

riff

e---3------3------0---0---0---0------3-----------------------
B---3------3------1---1---1---1------3-----------------------
G---0------0------0---0---0---0------0-----------------------
D---0------0------2---2---2---2------0------0---0------------
A---2------2------3---3---3---3------2---------------3---2-0-
E---3------3-------------------------3-----------------------

I want to post or [tab]
guest
You may want to rate the tab now too:
select rating
Please do not post tabs as comments. Select "correction" instead!