Oops, an error
Loading. Please wait.

I Just Dont Know What To Do With Myself Tab

version 2
version 2

Whole song

Interactive

Video

21,984 views 9 this week
no commentswrite comment
1 2 3 4 5
accurate
x 6
add to favorites
launch autoscroll
font size
0
reset
how to read this tab
guitar tuner
Tab Pro tools
  • play this tab
  • loop segment
  • change instrument
  • show fretboard
  • metronome
Autoscroll
slow
fast
+/-
esc
set tempo
stop
Contributor
Difficulty
novice
-----------------------------------------------------------------
I Just Dont Know What To Do With Myself - The White Stripes
-----------------------------------------------------------------
Tabbed by: DgorillazguyH
Email: almostashuvit@yahoo.com
Tuning: E A D G B e

Clean Tone w/Reverb
E|-------3-3-(0)-0--0-0-(0)-3-x----------------------------------|
B|-------3-3-(0)-1--1-1-(0)-3-x----------------------------------|
G|--(0)--0-0-(0)-0--0-0-(0)-0-x----------------------------------|
D|--(0)--0-0-----2--2-2-----0-x----------------------------------|
A|--(2)--2-2-----3--3-3-----2-x--5--5-3-2~-(0)-------------------|
E|---3---3-3----------------3-x----------------------------------|

E|-------3-3-(0)-0--0-0-(0)-3-x----------------------------------|
B|-------3-3-(0)-1--1-1-----3-x----------------------------------|
G|--(0)--0-0-(0)-0--0-0-----0-x----------------------------------|
D|--(0)--0-0-----2--2-2-------x----------------------------------|
A|--(2)--2-2-----3--3-3-------x--5--5-3-2~-(0)-------------------|
E|---3---3-3------------------x----------------------------------|

E|-------3-3-(0)-0--0-0-(0)-3-x--3-3-----------------------------|
B|-------3-3-(0)-1--1-1-(0)-3-x--3-3-----------------------------|
G|--(0)--0-0-(0)-0--0-0-(0)-0-x--0-0-----------------------------|
D|--(0)--0-0-----2--2-2-----0-x--0-0-----------------------------|
A|--(2)--2-2-----3--3-3-----2-x--2-2-----------------------------|
E|---3---3-3----------------3-x--3-3-----------------------------|
  I Just Don't Know What To
             With Myself.....

E|-------3-3-(0)-0--0-0-(0)-3-x--3-3-----------------------------|
B|-------3-3-(0)-1--1-1-(0)-3-x--3-3-----------------------------|
G|--(0)--0-0-(0)-0--0-0-(0)-0-x--0-0-----------------------------|
D|--(0)--0-0-----2--2-2-----0-x--0-0-----------------------------|
A|--(2)--2-2-----3--3-3-----2-x--2-2-----------------------------|
E|---3---3-3----------------3-x--3-3-----------------------------|
  I Don't Know What To
             With Myself.....

E|----(8)(8)-5----5-5--5------------1--------(1)-----------0-----|
B|-----5-(5)-5----5-5--5------------1--------(1)---------2-2-----|
G|-----5-----5----5-5--5------------2---------2----------2-2-----|
D|-----7-----7----7-7--7-------3-3--3----3-3--3----------2-2-----|
A|-(7)-7-----7----7-7--7---(3)-3-3--3----3-3--3-------0--0-------|
E|--5--5-----5----5-5--5----1--1-1-(1)---1-1--1--0-(0)-----------|

E|-----(0)-0-------3-3--0--0-0--3--------------------------------|
B|-----(2)-2-------3-3--1--1-1--3--------------------------------|
G|---------2---0-0-0-0--0--0-0--0--------------------------------|
D|--2----------0-0---0--2--2-2--0--------------------------------|
A|--0----------2-----2--3--3-3--2--------------------------------|
E|-------------------3----------3--------------------------------|

E|---------------3-3---------------------------------------------|
B|---------------3-3---------------------------------------------|
G|---------------0-0---------------------------------------------|
D|---------------0-0---------------------------------------------|
A|-------3-------2-2---------------------------------------------|
E|--3---------3--3-3---------------------------------------------|
  I Just Don't Know
 What To Do With Myself...

E|----(8)(8)-5----5-5--5------------1--------(1)-----------0-----|
B|-----5-(5)-5----5-5--5------------1--------(1)---------2-2-----|
G|-----5-----5----5-5--5------------2---------2----------2-2-----|
D|-----7-----7----7-7--7-------3-3--3----3-3--3----------2-2-----|
A|-(7)-7-----7----7-7--7---(3)-3-3--3----3-3--3-------0--0-------|
E|--5--5-----5----5-5--5----1--1-1-(1)---1-1--1--0-(0)-----------|

E|-----(0)-0-------3-3--0--0-0--3--------------------------------|
B|-----(2)-2-------3-3--1--1-1--3--------------------------------|
G|---------2---0-0-0-0--0--0-0--0--------------------------------|
D|--2----------0-0---0--2--2-2--0--------------------------------|
A|--0----------2-----2--3--3-3--2--------------------------------|
E|-------------------3----------3--------------------------------|

w/distortion
E|---------------------------------------------------------------|
B|---------------------------------------------------------------|
G|---------------------------------------------------------------|
D|--5-5--5-5-5-----5-5--5-5-5-----3-3--3-3-3-----3-3--3-3-3------|
A|--5-5--5-5-5-----5-5--5-5-5-----3-3--3-3-3-----3-3--3-3-3------|
E|--3-3--3-3-3-(1)-3-3--3-3-3-(0)-1-1--1-1-1-(0)-1-1--1-1-1------|

E|------------------------------------(3)------------------------|
B|-------------------------------------5-------------------------|
G|--3----3-------------5-5-5-5-5-5-5-5-5-------------------------|
D|--3----3----3-3-3-3--5-5-5-5-5-5-5-5-5-------------------------|
A|--1-x--1-x--3-3-3-3--3-3-3-3-3-3-3-3-3-------------------------|
E|------------1-1-1-1--------------------------------------------|

Clean Tone
E|---------------3-3-----------------------3-3-------------------|
B|---------------3-3-----------------------3-3-------------------|
G|---------------0-0-----------------------0-0-------------------|
D|---------------0-0-----------------------0-0-------------------|
A|-------3-------2-2---------------3-------2-2-------------------|
E|--3---------3--3-3----------3---------3--3-3-------------------|
  I Just Don't Know
 What To Do With Myself...

E|----(8)(8)-5----5-5--5------------1--------(1)-----------0-----|
B|-----5-(5)-5----5-5--5------------1--------(1)---------2-2-----|
G|-----5-----5----5-5--5------------2---------2----------2-2-----|
D|-----7-----7----7-7--7-------3-3--3----3-3--3----------2-2-----|
A|-(7)-7-----7----7-7--7---(3)-3-3--3----3-3--3-------0--0-------|
E|--5--5-----5----5-5--5----1--1-1-(1)---1-1--1--0-(0)-----------|

E|-----(0)-0-------3-3--0--0-0--3--------------------------------|
B|-----(2)-2-------3-3--1--1-1--3--------------------------------|
G|---------2---0-0-0-0--0--0-0--0--------------------------------|
D|--2----------0-0---0--2--2-2--0--------------------------------|
A|--0----------2-----2--3--3-3--2--------------------------------|
E|-------------------3----------3--------------------------------|

w/distortion
E|---------------------------------------------------------------|
B|---------------------------------------------------------------|
G|---------------------------------------------------------------|
D|--5-5--5-5-5-----5-5--5-5-5-----3-3--3-3-3-----3-3--3-3-3------|
A|--5-5--5-5-5-----5-5--5-5-5-----3-3--3-3-3-----3-3--3-3-3------|
E|--3-3--3-3-3-(1)-3-3--3-3-3-(0)-1-1--1-1-1-(0)-1-1--1-1-1------|

E|------------------------------------(3)------------------------|
B|-------------------------------------5-------------------------|
G|--3----3-------------5-5-5-5-5-5-5-5-5-------------------------|
D|--3----3----3-3-3-3--5-5-5-5-5-5-5-5-5-------------------------|
A|--1-x--1-x--3-3-3-3--3-3-3-3-3-3-3-3-3-------------------------|
E|------------1-1-1-1--------------------------------------------|

E|---------------------------------------------------------------|
B|---------------------------------------------------------------|
G|---------------------------------------------------------------|
D|--5-5--3-3--5------------------5-5--3-3--5---------------------|
A|--5-5--3-3--5--5*--5*-3*-2*~---5-5--3-3--5--5*--5*-3*-2*~------|
E|--3-3--1-1--3------------------3-3--1-1--3---------------------|
*=(2 Octaves Higher w/Whammy)

E|---------------------------------------------------------------|
B|---------------------------------------------------------------|
G|-----------------------------------------4---------------------|
D|--5-5--3-3--5------------------5-5--3-3--5---------------------|
A|--5-5--3-3--5--5*--5*-3*-2*~---5-5--3-3--5---------------------|
E|--3-3--1-1--3------------------3-3--1-1-(3)--------------------|


The last chord is played w/o distortion.

comments
print report bad tab
I want to post or [tab]
guest
You may want to rate the tab now too:
select rating
Please do not post tabs as comments. Select "correction" instead!