Oops, an error
Loading. Please wait.

Icky Thump tab

version 7
version 7
2,985 views 1 this week
4 commentsread comments
1 2 3 4 5
x 3
add to favorites
×
Save as Personal and add changes to this tab that will be seen only by you. Learn more ›
×
You can save this tab as Personal to edit and correct it or add notes. All changes will be seen only by you. Learn more »
launch autoscroll
font size
0
reset
how to read this tab
guitar tuner
edit
Autoscroll
slow
fast
+/-
esc
set tempo
stop
Author
Difficulty
-------------------------------------------------------------------------------
                             Icky thump - White Strips
-------------------------------------------------------------------------------
Tabbed by:arden98
email:krownusheroes@yahoo.com

Tunind:

Verse:
E-0--0--0--0--0--0--0---0--3-------------------------------------|
a-2--2--2--2--2--2--2---2--5-------------------------------------|
d-2--2--2--2--2--2--2---2--5-------------------------------------|
g----------------------------------------------------------------|
b----------------------------------------------------------------|
e----x--x--x---x--x-x--------------------------------------------|

Chorus:
E-0-----------------------0--3--0-----------------------------------|Repeat
a-2-----------------------2--5--2-----------------------------------|
d-2-----------5--5--4--0--2--5--2--7--5--4--7--6--------------------|
g----7--5--4--------------------------------------7-5--5------------|
b--------------------------------------------------- 5--5--2--------|
e----------------------------------------------------3--3--0--------|

end Chorus:

E----------------------------------------------------------------|
a-5--7--5--7-----------------------------------------------------|
d-7--9--7--9-----------------------------------------------------|
g-7--9--7--9-----------------------------------------------------|
b----------------------------------------------------------------|
e----------------------------------------------------------------|

First Solo:

E-------------------------------------------------------------------|
a-------------------------------------------------Repeat------------|
d--7--6-----9--8-----10--9-------12--11--12------four times---------|
g--------7--------9---------10--------------------------------------|
b-------------------------------------------------------------------|
e-------------------------------------------------------------------|

---- Second Solo: Heavy Distortion
E--12--12--12--12--12--9/--12---12p-9h-12--19a------24-------------------|
a------------------------------------------------------------------------|
d------------------------------------------------------------------------|
g-----------------------------------------------14------14--16--17-------|
b------------------------------------------------------------------------|
e------------------------------------------------------------------------|

E---------------------22b--18-------------------------------19--17----------------------|
a-----------------20------------------------15--17--15--17--------20--17----------------|
d-----------------------------------19b-15--------------------------------14--17/-9--8--|
g---------------17----------------------------------------------------------------------|
b---------------------------------------------------------------------------------------|
e---------------------------------------------------------------------------------------|

E-----------------19--17-------------------------------------------------|
a-19--19b-19--17----------20--19--20--19--17-----------------------------|
d------------------------------------------------------------------------|
g----------------------------------------------21b-21--19--22--19--------|
b------------------------------------------------------------------------|
e------------------------------------------------------------------------|

E-14--15--17--15--14----------------------------------------------------|
a---------------------15/-17--15----------------------------------------|
d-------------------------------17--16---16--17--16--14b-14-------------|
g-----------------------------------------------------------17--14------|
b-----------------------------------------------------------------------|
e-----------------------------------------------------------------------|


************************************
| /   slide up
| \   slide down
| h   hammer-on
| p   pull-off
| b   bend
************************************

            
            
Suggest correction
Creating personal tab
Creating personal tab
You can edit any tab online and save it as your Personal.

You can edit, replace or remove any tab part or add personal notes – all changes will be seen only by you.

Personal tabs can be accessed anytime from any device, even offline.
Learn more »
Give kudos to tab author, rate the tab!
1 2 3 4 5
comments
print report bad tab
4 comments total. Showing first comments.
0 reply
test_record 10 Dec 02, 2010 08:13 AM

This tab is good, you know, except for the fact that it's upside down and all.

0 reply
arden98 85 Dec 02, 2010 10:11 AM, edited on February 18 2015, 04:56 pm

Alright I fixed it up.

0 reply
buddy_101 62 Dec 06, 2010 09:30 AM

if you swapped round the string notes at the start it would be fine (simple way of fixing it) but it reads wrong currently. double check next time, but the tab is sound

guest
You may want to rate the tab now too:
select rating
Wanna post a correction for this tab? Suggest correction