Oops, an error
Loading. Please wait.

Lets Build A Home Bass Tab

version 1
version 1

Whole song

Interactive

539 views 1 this week
no commentswrite comment
1 2 3 4 5
please rate
add to favorites
launch autoscroll
font size
0
reset
guitar tuner
Tab Pro tools
  • play this tab
  • loop segment
  • change instrument
  • show fretboard
  • metronome
×
Best way to learn
"Lets Build A Home"
Autoscroll
slow
fast
+/-
esc
set tempo
stop
Contributor
Difficulty
novice
This Tab doesn't exist, because the White Stripes haven't a bassist.
But for my band I've done this tab, so tell me how do you find it and if I have some 
to do... Thanks and enjoy!!! ^^

Main Riff :

G|-----------------|
D|-----------------| .     The last note is a fifth, to give change...
A|-2---2---2---2-3-| . X5
E|---3---3---3-----|

G|-----------------|
D|-----------------|
A|-----------------|
E|-5-5-5-5-5-5-5-5-|

G|-----------------|
D|-----------------|
A|-2---2---2---2-3-|
E|---3---3---3-----|

G|---------|             G|------------|
D|---------| .  "WOOO"   D|------------|
A|---------| .  X3       A|------------|
E|-77-77-7-|             E|-77-77-77-7-|

Return to the beginning to remake it once then to continue below...

G|-----------------------------------------------------------". For this part do not press too
D|-----------------------------------------------------------". extremely on the cords,so that the
A|-33/44/55/66/77/88/99/10-10/11-11/0-| sound appears "Dirty-".
E|-----------------------------------------------------------". (Or use a bottleneck.)

G|-----------------|
D|-----------------| .     The last note is a fifth, to give change...
A|-2---2---2---2-3-| . X2
E|---3---3---3-----|

G|------------------". Warning, here, the guitar plays with the cords choked
D|------------------". then, either you play gently, or you also make with the
A|------------------". choked cords, or you do not play.
E|-5-5-5-5-5-5-5-5--".

And now you return to the begining to remake it a last time.

Enjoy!!! :-)

If you have some questions, I speak English, French and German or if you have to like my 
do not hesitate, take my e-mail: smeiliz@hotmail.com
comments
We did not receive enough feedback on this tab! Please rate:
print report bad tab
1 2 3 4 5
I want to post or [tab]
guest
You may want to rate the tab now too:
select rating
Please do not post tabs as comments. Select "correction" instead!