Oops, an error
Loading. Please wait.

Lets Build A Home Tab

version 2
version 2

Whole song

Interactive

2,214 views 1 this week
3 commentsread comments
1 2 3 4 5
worth learning
x 5
add to favorites
launch autoscroll
font size
0
reset
how to read this tab
guitar tuner
Tab Pro tools
  • play this tab
  • loop segment
  • change instrument
  • show fretboard
  • metronome
×
Best way to learn
"Lets Build A Home"
Autoscroll
slow
fast
+/-
esc
set tempo
stop
Contributor
Difficulty
Tabbers playing skills
novice
intermediate ++
This is a Relativly Simple Song



\ = Slide To...

|| = Slide Guitar



Main Riff:

|----------------------|
|----------------------|
|----------------------|
|--55-1010-55-1010-----|
|--33-8-8--33-8-8------|
|----------------------|


Break:

|----------------------|
|----------------------|
|----------------------|
|--22-22-22-22-22------|
|--00-00-00-00-00------|
|----------------------|


Main Riff:

|----------------------|
|----------------------|
|----------------------|
|--55-1010-55-1010-----|
|--33-8-8--33-8-8------|
|----------------------|

Break2:

|----------------------|
|----------------------|
|----------------------|
|--3-3-3-3-3-----------|
|--1-1-1-1-1-----------|
|----------------------|


Solo1:

(With Slide)

||----------------------||
||----------------------||
||----------------------||
||--0-3\24--------------||
||--0-3\24--------------||
||--0-3\24--------------||


Main Riff:

|----------------------|
|----------------------|
|----------------------|
|--55-1010-55-1010-----|
|--33-8-8--33-8-8------|
|----------------------|


Solo2:

(With Slide)

||----3\12-12\24--------||
||----3\12-12\24--------||
||----3\12-12\24--------||
||--0-------------------||
||--0-------------------||
||--0-------------------||

i hope u like it
if it's a little off
tell me
ill fix it
comments
print report bad tab
3 comments total.
0 reply
100%guitarmad wrote on September 22 2007, 04:28 pm

way too high

0 reply
zebraguitarist wrote on September 23 2007, 11:18 am

really?
it sounds right on my guitar
and i tune it everytime b4 i play

0 reply
PiratesEverTabs wrote on February 28 2010, 05:32 pm

Open E\Open D Tuning

I want to post or [tab]
guest
You may want to rate the tab now too:
select rating
Please do not post tabs as comments. Select "correction" instead!