Oops, an error
Loading. Please wait.

Little Bird tab

version 2
version 2

Whole song

Interactive

48,371 views 69 this week
9 commentsread comments
1 2 3 4 5
x 21
add to favorites
×
Save as Personal and add changes to this tab that will be seen only by you. Learn more ›
×
You can save this tab as Personal to edit and correct it or add notes. All changes will be seen only by you. Learn more »
launch autoscroll
font size
0
reset
how to read this tab
guitar tuner
edit
Autoscroll
slow
fast
+/-
esc
set tempo
stop
Author
The White Stripes - Little Bird

 [Intro/Riff]
e|--------------------3-3-3--|
B|--------------------3-3-3--|
G|--0-3-0-5-0-3-0-3\0--------|
D|--0-3-0-5-0-3-0-3\0--------|
A|--0-3-0-5-0-3-0-3\0--------|
E|---------------------------|

 [Breaks]
e|------------------------------------------------------3-3-3-3--|
B|------------------------------------------------------3-3-3-3--|
G|--0-3-0-5-0-3-0-3\5--5-5-5-5-5\--7-10-7-5-0-5-3-7-3-0----------|
D|--0-3-0-5-0-3-0-3\5--5-5-5-5-5\--7-10-7-5-0-5-3-7-3-0----------|
A|--0-3-0-5-0-3-0-3\5--5-5-5-5-5\--7-10-7-5-0-5-3-7-3-0----------|
E|---------------------------------------------------------------|

e|-------------------------------------------------------------|
B|-------------------------------------------------------------|
G|--0-3-0-5-0-3-0-3\0-3\0-3\0-3-0-3\0-3\0-5\0-3\0-3-0-3\0-5\0--|
D|--0-3-0-5-0-3-0-3\0-3\0-3\0-3-0-3\0-3\0-5\0-3\0-3-0-3\0-5\0--|
A|--0-3-0-5-0-3-0-3\0-3\0-3\0-3-0-3\0-3\0-5\0-3\0-3-0-3\0-5\0--|
E|-------------------------------------------------------------|

e|---------------------------------------3-3-3-3--|
B|---------------------------------------3-3-3-3--|
G|--0/5-5-5-5-5-5\--7-10-7-5-0-5-3-7-3-0----------|
D|--0/5-5-5-5-5-5\--7-10-7-5-0-5-3-7-3-0----------|
A|--0/5-5-5-5-5-5\--7-10-7-5-0-5-3-7-3-0----------|
E|------------------------------------------------|

[Interlude]
e|--------------------(Play 2 Times)-----------------------------------|
B|---------------------------------------------------------------------|
G|--10/12-12-12-12-12-12-12-12-15-15-15-15-15-15-15-14-14-14-14-14-14--|
D|--10/12-12-12-12-12-12-12-12-15-15-15-15-15-15-15-14-14-14-14-14-14--|
A|--10/12-12-12-12-12-12-12-12-15-15-15-15-15-15-15-14-14-14-14-14-14--|
E|---------------------------------------------------------------------|

 [Last Riff]
e|-------------3-3-3--|
B|-------------3-3-3--|
G|--0-3-0-5\0---------|
D|--0-3-0-5\0---------|
A|--0-3-0-5\0---------|
E|--------------------|

 [Ending]
e|--------------------------------------5-5-5-3-2-0-----------0--|
B|--------------------------------------------------3-3-3/5-6-0--|
G|--0/5-5-5-5-5\--7-10-7-5-0-5-3-7-3-0------------------------0--|
D|--0/5-5-5-5-5\--7-10-7-5-0-5-3-7-3-0------------------------0--|
A|--0/5-5-5-5-5\--7-10-7-5-0-5-3-7-3-0------------------------0--|
E|------------------------------------------------------------0--|

************************************

| \  Slide down
| /  Slide up

************************************

            
            
Suggest correction
Creating personal tab
Creating personal tab
You can edit any tab online and save it as your Personal.

You can edit, replace or remove any tab part or add personal notes – all changes will be seen only by you.

Personal tabs can be accessed anytime from any device, even offline.
Learn more »
comments
print report bad tab
9 comments total. Showing first comments.
0 reply
xoxomattyo 10 Jun 24, 2007 12:05 PM

It's easier to play in open g tuning

+1 reply
TK1 238 Jun 29, 2007 09:34 PM

according to the wikipedia article about them, it is in open g tuning. so youre right in saying that.

+6 reply
bmurphy317 10 Jul 13, 2008 09:34 AM

The two high notes at the end of the main lick should be this:
----3-3-3-----
----0-0-0-----

guest
You may want to rate the tab now too:
select rating
Wanna post a correction for this tab? Suggest correction