Oops, an error
Loading. Please wait.

Little Cream Soda Tab

version 2
version 2

Whole song

Interactive

10,616 views 15 this week
2 commentsread comments
1 2 3 4 5
accurate
x 6
add to favorites
launch autoscroll
font size
0
reset
how to read this tab
guitar tuner
Tab Pro tools
  • play this tab
  • loop segment
  • change instrument
  • show fretboard
  • metronome
×
Best way to learn
"Little Cream Soda"
Autoscroll
slow
fast
+/-
esc
set tempo
stop
Contributor
Difficulty
intermediate
Little Cream Soda - The White Stripes
----------------------------------------------------------------------------
Tabbed By: LesPaul5391
Email: andysg2009@hotmail.com

Tuning: Standard

Intro
e|--0-0-0--------|   x8
B|--0-0-0--------|
G|--2-2-2--5-4---|
D|--2-2-2--5-4---|
A|--1-1-1--3-2---|
E|--0-0-0--0-0---|

e|--------8-7-------------------8-7--------7b-------------------------------|
B|-------------------8-5-------------------8b-------------------------------|
G|--------------------------------------------------------------------------|
D|--2-2-2------2-2-2------2-2-2------2-2-2----------------------------------|
A|--2-2-2------2-2-2------2-2-2------2-2-2----------------------------------|
E|--0-0-0------0-0-0------0-0-0------0-0-0----------------------------------|

e|--------8-7-------------------8-7--------7-7b-----------------------------|
B|-------------------8-5-------------------8-8b-----------------------------|
G|--------------------------------------------------------------------------|
D|--2-2-2------2-2-2------2-2-2------2-2-2----------------------------------|
A|--2-2-2------2-2-2------2-2-2------2-2-2----------------------------------|
E|--0-0-0------0-0-0------0-0-0------0-0-0----------------------------------|

e|--------8h10p8p0--------7h8p7p0----------------8h10p8p0--------7-7b-------|
B|--------------------------------7h8p7p0------------------------8-8b-------|
G|--------------------------------------------------------------------------|
D|--2-2-2-----------2-2-2------------------2-2-2-----------2-2-2------------|
A|--2-2-2-----------2-2-2------------------2-2-2-----------2-2-2------------|
E|--0-0-0-----------0-0-0------------------0-0-0-----------0-0-0------------|

e|--------8h10p8p0--------7h8p7p0----------------7h8p7p0----------------7-7--|b
B|--------------------------------7h8p7p0----------------7h8p7p0--------8-8--|b
G|---------------------------------------------------------------------------|
D|--2-2-2-----------2-2-2------------------2-2-2------------------2-2-2------|
A|--2-2-2-----------2-2-2------------------2-2-2------------------2-2-2------|
E|--0-0-0-----------0-0-0------------------0-0-0------------------0-0-0------|

e|--0-0-0--------|x4
B|--0-0-0--------|
G|--2-2-2--5-4---|
D|--2-2-2--5-4---|
A|--1-1-1--3-2---|
E|--0-0-0--0-0---|

Verse 1.
e|------------------------|x8
B|------------------------|
G|------------------------|
D|------------------------|
A|----3-2~----------------|
E|--0------0-3-3-0-3-3b---|

e|--------8-7-------------------8-7--------7-7b-----------------------------|
B|-------------------8-5-------------------8-8b-----------------------------|
G|--------------------------------------------------------------------------|
D|--2-2-2------2-2-2------2-2-2------2-2-2----------------------------------|
A|--2-2-2------2-2-2------2-2-2------2-2-2----------------------------------|
E|--0-0-0------0-0-0------0-0-0------0-0-0----------------------------------|

e|--------8-7-------------------8-7--------7-7b-----------------------------|
B|-------------------8-5-------------------8-8b-----------------------------|
G|--------------------------------------------------------------------------|
D|--2-2-2------2-2-2------2-2-2------2-2-2----------------------------------|
A|--2-2-2------2-2-2------2-2-2------2-2-2----------------------------------|
E|--0-0-0------0-0-0------0-0-0------0-0-0----------------------------------|

e|--------8h10p8p0--------7h8p7p0----------------8h10p8p0--------7-7b-------|
B|--------------------------------7h8p7p0------------------------8-8b-------|
G|--------------------------------------------------------------------------|
D|--2-2-2-----------2-2-2------------------2-2-2-----------2-2-2------------|
A|--2-2-2-----------2-2-2------------------2-2-2-----------2-2-2------------|
E|--0-0-0-----------0-0-0------------------0-0-0-----------0-0-0------------|

e|--------8h10p8p0--------7h8p7p0----------------8h10p8p0-------------------|
B|--------------------------------7h8p7p0-----------------------------------|
G|--------------------------------------------------------------------------|
D|--2-2-2-----------2-2-2------------------2-2-2-----------2-2-2------------|
A|--2-2-2-----------2-2-2------------------2-2-2-----------2-2-2------------|
E|--0-0-0-----------0-0-0------------------0-0-0-----------0-0-0------------|

e|--0-0-0--------|x4
B|--0-0-0--------|
G|--2-2-2--5-4---|
D|--2-2-2--5-4---|
A|--1-1-1--3-2---|
E|--0-0-0--0-0---|

Verse 2.
e|------------------------|x4
B|------------------------|
G|------------------------|
D|------------------------|
A|----3-2~----------------|
E|--0------0-3-3-0-3-3b---|

e|-----------------------------------------------------|
B|-----------------------------------------------------|
G|-----------------------------------------------------|
D|--2-2-2-2---2-2-2-2---2-2-2-2---2-2-2-2---2-2-2-2----|
A|--2-2-2-2---2-2-2-2---2-2-2-2---2-2-2-2---2-2-2-2----|
E|--0-0-0-0-3-0-0-0-0-3-0-0-0-0-3-0-0-0-0-3-0-0-0-0-3--|
<---------------------palm muted-----------------------|

e|-------------------------------|
B|-------------------------------|
G|-------------------------------|
D|2-2-2-2---2-2-2-2---2-2-2-2----|
A|2-2-2-2---2-2-2-2---2-2-2-2----|
E|0-0-0-0-3-0-0-0-0-3-0-0-0-0----|
<----------palm muted------------|

e|------0---|x9
B|------0---|
G|--5-4-1---|
D|--5-4-2---|
A|--3-2-2---|
E|--0-0-0---|

e|--------8-7-------------------8-7--------7b-------------------------------|
B|-------------------8-5-------------------8b-------------------------------|
G|--------------------------------------------------------------------------|
D|--2-2-2------2-2-2------2-2-2------2-2-2----------------------------------|
A|--2-2-2------2-2-2------2-2-2------2-2-2----------------------------------|
E|--0-0-0------0-0-0------0-0-0------0-0-0----------------------------------|

e|--------8-7-------------------8-7-----------------------------------------|
B|-------------------8-5--------------------12/-----------------------------|
G|--------------------------------------------------------------------------|
D|--2-2-2------2-2-2------2-2-2------2-2-2----------------------------------|
A|--2-2-2------2-2-2------2-2-2------2-2-2----------------------------------|
E|--0-0-0------0-0-0------0-0-0------0-0-0----------------------------------|

e|--------8h10p8p0--------7h8p7p0----------------8h10p8p0-------------------|
B|--------------------------------7h8p7p0-------------------------8~--------|
G|--------------------------------------------------------------------------|
D|--2-2-2-----------2-2-2------------------2-2-2-----------2-2-2------------|
A|--2-2-2-----------2-2-2------------------2-2-2-----------2-2-2------------|
E|--0-0-0-----------0-0-0------------------0-0-0-----------0-0-0------------|

e|--------8h10p8p0--------7h8p7p0----------------7h8p7p0--------------------|
B|--------------------------------7h8p7p0----------------7h8p7p0------------|
G|--------------------------------------------------------------------------|
D|--2-2-2-----------2-2-2------------------2-2-2------------------2-2-2-----|
A|--2-2-2-----------2-2-2------------------2-2-2------------------2-2-2-----|
E|--0-0-0-----------0-0-0------------------0-0-0------------------0-0-0-----|

e|-------------------------0------------------------------------------------|
B|--------7h8p7p0----------0------------------------------------------------|
G|----------------7h8p7p0--1------------------------------------------------|
D|--2-2-2------------------1------------------------------------------------|
A|--2-2-2------------------2------------------------------------------------|
E|--0-0-0------------------0------------------------------------------------|

Outro
e|------0---|x7
B|------0---|
G|--5-4-1---|
D|--5-4-2---|
A|--3-2-2---|
E|--0-0-0---|


| /  slide up
| \  slide down
| h  hammer-on
| p  pull-off
| ~  vibrato
| +  harmonic
| x  Mute note
============================================================================
comments
print report bad tab
2 comments total.
0 reply
docbells wrote on June 30 2007, 03:11 pm

I am not sure you are listening to the same song I am...

0 reply
bensickles wrote on January 7 2013, 08:29 pm

e|------------------------|x8
B|------------------------|
G|------------------------|
D|------------------------|
A|----3p2~----------------|
E|--0------0h3-3-0h3-3----|

this sounds a lot better

I want to post or [tab]
guest
You may want to rate the tab now too:
select rating
Please do not post tabs as comments. Select "correction" instead!