Oops, an error
Loading. Please wait.

Little Cream Soda Tab

version 3
version 3

Whole song

Interactive

12,238 views 15 this week
7 commentsread comments
1 2 3 4 5
accurate
x 14
add to favorites
launch autoscroll
font size
0
reset
how to read this tab
guitar tuner
Tab Pro tools
  • play this tab
  • loop segment
  • change instrument
  • show fretboard
  • metronome
×
Best way to learn
"Little Cream Soda"
Autoscroll
slow
fast
+/-
esc
set tempo
stop
Contributor
Little Cream Soda by the White Stripes
Icky Thump (2007)
(standard tuning)

h   hammer on
p   pull off
b   bend
pb  pre bend
r   release bend
/   slide up
\   slide down
*   natural harmonic
ra  rake

One, two, three, four...
|----------------------------|
|----------------------------|
|----------------------------|
|----------5-4-----------5-4-|
|-2--2--2--3-2--2--2--2--3-2-|
|-0--0--0-------0--0--0------|
4 times

|----------20-19----------------------------20-19--------------15---|
|---------------------------20-15-----------20-19--------------18b--|
|-------------------------------------------------------------------|
|-------------------------------------------------------------------|
|-------------------------------------------------------------------|
|-0--0--0----------0--0--0---------0-000-00----------0--000--00-----|


-----------20-19----------------------------20-19-------------15---15---|
----------------------------20-15-----------------------------18b--18b--|
------------------------------------------------------------------------|
------------------------------------------------------------------------|
------------------------------------------------------------------------|
-0-000-00----------0-000-00---------0-000-00--------0--000--00----------|


-----------19h20p19----------19h20p19---------------------19h20p19----|
-------------------17----------------19h20p19---------------------17--|
---------------------------------------------16-----------------------|
----------------------------------------------------------------------|
----------------------------------------------------------------------|
-0-000-00-------------0-000----------------------0-000-00-------------|


-----------19h20p19-------------15---15---|
-------------------17-----------18b--18b--|
------------------------------------------|
------------------------------------------|
------------------------------------------|
-0-000-00-------------0-000-00------------|


----------19h20p19--------19h20p19--------------------19h20p19---19h20p19---|
------------------17--------------19h20p19---------------------17--------17-|
------------------------------------------16--------------------------------|
----------------------------------------------------------------------------|
----------------------------------------------------------------------------|
-0-000-00------------0-000--------------------0-000-00----------------------|


---------15---15---|
---------18b--18r--|
-------------------|
-------------------|
-------------------|
--0-000------------|


|----------------------------|
|----------------------------|
|----------------------------|
|----------5-4-----------5-4-|
|-2--2--2--3-2--2--2--2--3-2-|
|-0--0--0-------0--0--0------|
2 times


|---------------------------------------------------|
|---------------------------------------------------|
|---------------------------------------------------|
|---------------------------------------------------|
|-------3p2----------------------3p2----------------|
|--0---------0h3-3--0h3-3---0---------0h3-3--0h3-3--|


---------------------------------------------------|
---------------------------------------------------|
---------------------------------------------------|
---------------------------------------------------|
-------3p2----------------------3p2----------------|
--0---------0h3-3--0h3-3---0---------0h3-3--0h3-3--|
Well every highway that I go down seems to be longer then the last one that I knew about. Oh well.


----------------------------------------------------|
--0-------------------------------------------------|
--1-------------------------------------------------|
--2-------------------------------------------------|
--2----3p2----------------------3p2-----------------|
--0---------0h3-3--0h3-3---0---------0h3-3--0h3-3---|
Yeah, and every girl that I walk around seems to be more of an illusion then the last 
that I found. Oh well....


---------------------------------------------------|
---------------------------------------------------|
---------------------------------------------------|
---------------------------------------------------|
-------3p2----------------------3p2----------------|
--0---------0h3-3--0h3-3---0---------0h3-3--0h3-3--|
...and there's so many in front of me wearing canes and ruby rings. It's like a (?) 
when he sings.


---------------------------|
---------------------------|
---------------------------|
---------------------------|
-------3p2-----------------|
--0---------0h3-3--0h3-3---|
 With every chance to set himself on fire he just ends up doin' the same thing.


|-----------20-19----------------------------20-19-------------15---15---|
|----------------------------20-15-----------------------------18b--18b--|
|------------------------------------------------------------------------|
|------------------------------------------------------------------------|
|------------------------------------------------------------------------|
|-0-000-00----------0-000-00---------0-000-00--------0--000--00----------|


-----------20-19----------------------------20-19-------------15---15---|
----------------------------20-15-----------------------------18b--18r--|
------------------------------------------------------------------------|
------------------------------------------------------------------------|
------------------------------------------------------------------------|
-0-000-00----------0-000-00---------0-000-00--------0--000--00----------|


----------19h20p19--------19h20p19--------------------20h22p20------|
------------------17--------------19h20p19--------------------21----|
------------------------------------------16------------------------|
--------------------------------------------------------------------|
--------------------------------------------------------------------|
-0-000-00------------0-000--------------------0-000-00--------------|


---------15---15------------19h20p19-----------19h20p19---------------|
---------18b--18r-------------------17-----------------17-19h20p19----|
------------------------------------------------------------------16--|
----------------------------------------------------------------------|
----------------------------------------------------------------------|
--0-000------------0-000-00-------------0-000-------------------------|


------------20h22p20-------------15--15----|
--------------------21-----------18b-18br--|
-------------------------------------------|
-------------------------------------------|
-------------------------------------------|
--0-000-00--------------0-000-00-----------|


|----------------------------|
|----------------------------|
|----------------------------|
|----------5-4-----------5-4-|
|-2--2--2--3-2--2--2--2--3-2-|
|-0--0--0-------0--0--0------|
2 times


|---------------------------------------------------|
|---------------------------------------------------|
|---------------------------------------------------|
|---------------------------------------------------|
|-------3p2----------------------3p2----------------|
|--0---------0h3-3--0h3-3---0---------0h3-3--0h3-3--|


---------------------------------------------------|
---------------------------------------------------|
---------------------------------------------------|
---------------------------------------------------|
-------3p2----------------------3p2----------------|
--0---------0h3-3--0h3-3---0---------0h3-3--0h3-3--|
Well each beautiful thing I come across tells me to stop moving and shake this riddle off. Oh well.


-------------------------------------------------------|
-------------------------------------------------------|
-------------------------------------------------------|
-------------------------------------------------------|
--2--2--2--2---2--2--2--2---2--2--2--2---2--2--2--2----|
--0--0--0--0-3-0--0--0--0-3-0--0--0--0-3-0--0--0--0-3--|
And there was a time when all I wanted was my ice cream cold and a little cream soda, oh well, oh well.


---------------------------------------------------------------|
---------------------------------------------------------------|
---------------------------------------------------------------|
---------------------------------------------------------------|
--2--2--2--2---2--2--2--2---2--2--2--2---2--2--2--2---2--2--2--|
--0--0--0--0-3-0--0--0--0-3-0--0--0--0-3-0--0--0--0-3-0--0--0--|
And a wooden box and a alley full of rocks was all I had to care about, oh well.


----------------------------------------|
----------------------------------------|
----------------------------------------|
--5-4--------5-4------5-4--------5-4----|
--3-2-2------3-2-2----3-2-2------3-2-2--|
------0----------0--------0----------0--|


------------------------------------|
------------------------------------|
------------------------------------|
--5-4------5-4------5-4------5-4----|
--3-2-2----3-2-2----3-2-2----3-2-2--|
------0--------0--------0--------0--|
And now my mind is filled with rubber tires and forest fires and wonderin' I'm a liar 
lots of other situations where...


------------------------------------|
------------------------------------|
------------------------------------|
--5-4------5-4------5-4------5-4----|
--3-2-2----3-2-2----3-2-2----3-2-2--|
------0--------0--------0--------0--|
...I don't know what to do at which time God screams to me "There's nothing left for me to tell you!"


|-----------20-19----------------------------20-19-------------15---|
|----------------------------20-15-----------------------------18b--|
|-------------------------------------------------------------------|
|-------------------------------------------------------------------|
|-------------------------------------------------------------------|
|-0-000-00----------0-000-00---------0-000-00--------0--000--00-----|
Nothing left for me to tell you


-----------20-19----------------------------20-19-------------15---15---|
----------------------------20-15-----------------------------18b--18br-|
------------------------------------------------------------------------|
------------------------------------------------------------------------|
------------------------------------------------------------------------|
-0-000-00----------0-000-00---------0-000-00--------0--000--00----------|
Nothing left!


----------19h20p19--------19h20p19--------------------20h22p20------|
------------------17--------------19h20p19--------------------21----|
------------------------------------------16------------------------|
--------------------------------------------------------------------|
--------------------------------------------------------------------|
-0-000-00------------0-000--------------------0-000-00--------------|
Oh well, oh well, oh well. Oh well. Oh well, oh well, oh well. Oh Well.


---------15---15---|
---------18b--18r--|
-------------------|
-------------------|
-------------------|
--0-000------------|


----------------------------------------------------------------|
--------15h17p15---19h20p19------------15h17p15---19h20p19------|
----------------16---------21--------------------16---------21--|
----------------------------------------------------------------|
----------------------------------------------------------------|
-0-000---------------------------0-000--------------------------|


-----------------------------------|
---------15h17p15---19h20p19-------|
-----------------16---------21-----|
-----------------------------------|
--------------------------------2--|
-0-000--------------------------0--|


|---------------------------------------------------------------|
|---------------------------------------------------------------|
|---------------------------------------------------------------|
|--5-4------5-4------5-4------5-4------5-4------5-4------5-4----|
|--3-2-2----3-2-2----3-2-2----3-2-2----3-2-2----3-2-2----3-2-2--|
|------0--------0--------0--------0--------0--------0--------0--|
comments
print report bad tab
7 comments total. Showing first comments.
0 reply
DirtyFryBassGuy wrote on August 7 2007, 08:42 pm

just a note:


you need a whammy pedal set to 2 octaves up to play this song. it makes it so much easier, and it's how jack plays it.

0 reply
Heizöllagerraum wrote on October 21 2007, 09:10 am

i'm not sure.
what's about:

A|--3-2---------0[i think a0 sounds better than e3]
E|-0---0-3-3-0-3-

+3 reply
CMJPEC wrote on December 11 2007, 05:31 pm

Who writes music like this?

Jack is a genius, tab sounds good, you need a pedal to play everything on Icky Thump,
this is a good interpretation. This is what a tab is supposed to be.

I want to post or [tab]
guest
You may want to rate the tab now too:
select rating
Please do not post tabs as comments. Select "correction" instead!