Oops, an error
Loading. Please wait.

Little Ghost Tab

version 1
version 1

Whole song

Interactive

6,663 views 12 this week
no commentswrite comment
1 2 3 4 5
worth learning
x 2
add to favorites
launch autoscroll
font size
0
reset
how to read this tab
guitar tuner
Tab Pro tools
  • play this tab
  • loop segment
  • change instrument
  • show fretboard
  • metronome
Autoscroll
slow
fast
+/-
esc
set tempo
stop
jack white (guitar)



      A                         D                       
      E  Q    E  E  E  E  E     E  Q    E  E  E  E  E   
E||--------------------------|-------------------------|
B||--------------------------|-------------------------|
G||*--6--6----6--6--6--6--6--|--7--7----7--7--7--7--7--|
D||*--7--7----7--7--7--7--7--|--7--7----7--7--7--7--7--|
A||---7--7----7--7--7--7--7--|--5--5----5--5--5--5--5--|
E||---5--5----5--5--5--5--5--|-------------------------|


  A                         E                                                   
  E  Q    E  E  E  E  E     E  Q    E  E  E  E  E   9x  E  Q    E  E  E  E  E   
-------------------------|--------------------------||-------------------------|
-------------------------|--------------------------||-------------------------|
--6--6----6--6--6--6--6--|--9--9----9--9--9--9--9--*||--6--6----6--6--6--6--6--|
--7--7----7--7--7--7--7--|--9--9----9--9--9--9--9--*||--7--7----7--7--7--7--7--|
--7--7----7--7--7--7--7--|--7--7----7--7--7--7--7---||--7--7----7--7--7--7--7--|
--5--5----5--5--5--5--5--|--------------------------||--5--5----5--5--5--5--5--|


  E  Q    E  E  E  E  E     E  Q    E  E  E  E  E     E  Q    E  E  E  E  E   
-------------------------|-------------------------|-------------------------|
-------------------------|-------------------------|-------------------------|
--7--7----7--7--7--7--7--|--6--6----6--6--6--6--6--|--9--9----9--9--9--9--9--|
--7--7----7--7--7--7--7--|--7--7----7--7--7--7--7--|--9--9----9--9--9--9--9--|
--5--5----5--5--5--5--5--|--7--7----7--7--7--7--7--|--7--7----7--7--7--7--7--|
-------------------------|--5--5----5--5--5--5--5--|-------------------------|


  W                     S S S S S S S S S S S S S S S S  
-------------------||-----------------------------------|
-------------------||-----------------------------------|
--L----------------||*--6-6-6-6-6-6-6-6-6-6-6-6-6-6-6-6-|
--L----------------||*--7-7-7-7-7-7-7-7-7-7-7-7-7-7-7-7-|
--L----------------||---7-7-7-7-7-7-7-7-7-7-7-7-7-7-7-7-|
-------------------||---5-5-5-5-5-5-5-5-5-5-5-5-5-5-5-5-|


  S S S S S S S S S S S S S S S S    S S S S S S S S S S S S S S S S  
----------------------------------|----------------------------------|
----------------------------------|----------------------------------|
--7-7-7-7-7-7-7-7-7-7-7-7-7-7-7-7-|--6-6-6-6-6-6-6-6-6-6-6-6-6-6-6-6-|
--7-7-7-7-7-7-7-7-7-7-7-7-7-7-7-7-|--7-7-7-7-7-7-7-7-7-7-7-7-7-7-7-7-|
--5-5-5-5-5-5-5-5-5-5-5-5-5-5-5-5-|--7-7-7-7-7-7-7-7-7-7-7-7-7-7-7-7-|
----------------------------------|--5-5-5-5-5-5-5-5-5-5-5-5-5-5-5-5-|


  S S S S S S S S S S S S S S S S      E  Q    E  E  E  E  E   
-----------------------------------||-------------------------|
-----------------------------------||-------------------------|
--9-9-9-9-9-9-9-9-9-9-9-9-9-9-9-9-*||--L----------6--6--6--6--|
--9-9-9-9-9-9-9-9-9-9-9-9-9-9-9-9-*||--L----------7--7--7--7--|
--7-7-7-7-7-7-7-7-7-7-7-7-7-7-7-7--||--L----------7--7--7--7--|
-----------------------------------||-------------5--5--5--5--|


  E  Q    E  E  E  E  E     E  Q    E  E  E  E  E     E  Q    E  E  E  E  E   
-------------------------|-------------------------|-------------------------|
-------------------------|-------------------------|-------------------------|
--7--7----7--7--7--7--7--|--6--6----6--6--6--6--6--|--9--9----9--9--9--9--9--|
--7--7----7--7--7--7--7--|--7--7----7--7--7--7--7--|--9--9----9--9--9--9--9--|
--5--5----5--5--5--5--5--|--7--7----7--7--7--7--7--|--7--7----7--7--7--7--7--|
-------------------------|--5--5----5--5--5--5--5--|-------------------------|


  E  Q    E  E  E  E  E     E  Q    E  E  E  E  E     W                 
-------------------------|-------------------------|-------------------|
-------------------------|-------------------------|-------------------|
--6--6----6--6--6--6--6--|--7--7----7--7--7--6--7--|--L----------------|
--7--7----7--7--7--7--7--|--7--7----7--7--7--7--7--|--L----------------|
--7--7----7--7--7--7--7--|--5--5----5--5--5--7--5--|--L----------------|
--5--5----5--5--5--5--5--|-------------------5-----|-------------------|


-------------------||
-------------------||
-------------------||
-------------------||
-------------------||
-------------------||










jack white (mandolin)



                                m                       
      E  Q    E  E  E  E  E     E  Q    E  E  E  E  E   
E||---0--0----0--0--0--0--0--|--5--5----5--5--5--5--5--|
A||*--4--4----4--4--4--4--4--|--0--0----0--0--0--0--0--|
D||*--2--2----2--2--2--2--2--|--4--4----4--4--4--4--4--|
G||---2--2----2--2--2--2--2--|--7--7----7--7--7--7--7--|


  E  Q    E  E  E  E  E     E  Q    E  E  E  E  E   9x  E  Q    E  E  E  E  E   
--0--0----0--0--0--0--0--|--0--0----0--0--0--0--0---||--0--0----0--0--0--0--0--|
--4--4----4--4--4--4--4--|--2--2----2--2--2--2--2--*||--4--4----4--4--4--4--4--|
--2--2----2--2--2--2--2--|--2--2----2--2--2--2--2--*||--2--2----2--2--2--2--2--|
--2--2----2--2--2--2--2--|--1--1----1--1--1--1--1---||--2--2----2--2--2--2--2--|


  E  Q    E  E  E  E  E     E  Q    E  E  E  E  E     E  Q    E  E  E  E  E   
--5--5----5--5--5--5--5--|--0--0----0--0--0--0--0--|--0--0----0--0--0--0--0--|
--0--0----0--0--0--0--0--|--4--4----4--4--4--4--4--|--2--2----2--2--2--2--2--|
--4--4----4--4--4--4--4--|--2--2----2--2--2--2--2--|--2--2----2--2--2--2--2--|
--7--7----7--7--7--7--7--|--2--2----2--2--2--2--2--|--1--1----1--1--1--1--1--|


  W                     S S S S S S S S S S S S S S S S  
-------------------||---0-0-0-0-0-0-0-0-0-0-0-0-0-0-0-0-|
--L----------------||*--4-4-4-4-4-4-4-4-4-4-4-4-4-4-4-4-|
--L----------------||*--2-2-2-2-2-2-2-2-2-2-2-2-2-2-2-2-|
--L----------------||---2-2-2-2-2-2-2-2-2-2-2-2-2-2-2-2-|


  S S S S S S S S S S S S S S S S    S S S S S S S S S S S S S S S S  
--5-5-5-5-5-5-5-5-5-5-5-5-5-5-5-5-|--0-0-0-0-0-0-0-0-0-0-0-0-0-0-0-0-|
--0-0-0-0-0-0-0-0-0-0-0-0-0-0-0-0-|--4-4-4-4-4-4-4-4-4-4-4-4-4-4-4-4-|
--4-4-4-4-4-4-4-4-4-4-4-4-4-4-4-4-|--2-2-2-2-2-2-2-2-2-2-2-2-2-2-2-2-|
--7-7-7-7-7-7-7-7-7-7-7-7-7-7-7-7-|--2-2-2-2-2-2-2-2-2-2-2-2-2-2-2-2-|


  S S S S S S S S S S S S S S S S      E  Q    E  E  E  E  E   
--0-0-0-0-0-0-0-0-0-0-0-0-0-0-0-0--||--0--0----0--0--0--0--0--|
--2-2-2-2-2-2-2-2-2-2-2-2-2-2-2-2-*||--4--4----4--4--4--4--4--|
--2-2-2-2-2-2-2-2-2-2-2-2-2-2-2-2-*||--2--2----2--2--2--2--2--|
--1-1-1-1-1-1-1-1-1-1-1-1-1-1-1-1--||--2--2----2--2--2--2--2--|


  E  Q    E  E  E  E  E     E  Q    E  E  E  E  E     E  Q    E  E  E  E  E   
--5--5----5--5--5--5--5--|--0--0----0--0--0--0--0--|--0--0----0--0--0--0--0--|
--0--0----0--0--0--0--0--|--4--4----4--4--4--4--4--|--2--2----2--2--2--2--2--|
--4--4----4--4--4--4--4--|--2--2----4--4--4--4--4--|--2--2----2--2--2--2--2--|
--7--7----7--7--7--7--7--|--2--2----2--2--2--2--2--|--1--1----1--1--1--1--1--|


  E  Q    E  E  E  E  E     E  Q    E  E  E  E  E                    
--0--0----0--0--0--0--0--|--5--5----5--5--5--0--5--|-------|-------||
--4--4----4--4--4--4--4--|--0--0----0--0--0--4--0--|-------|-------||
--2--2----2--2--2--2--2--|--4--4----4--4--4--2--4--|-------|-------||
--2--2----2--2--2--2--2--|--7--7----7--7--7--2--7--|-------|-------||




Duration Legend
---------------
W - whole
H - half
Q - quarter
E - 8th
S - 16th
T - 32nd
X - 64th
. - note dotted
|-n-|  - n-tuplets


Tablature Legend
----------------
L - tied note
x - dead note
g - grace note
(n) - ghost note
> - accentuded note
NH - natural harmonic
AH - artificial harmonic
TH - tapped harmonic
SH - semi harmonic
PH - pitch harmonic
h - hammer on
p - pull off
b - bend
br - bendRelease
pb - preBend
pbr - preBendRelease
brb - bendReleaseBend
\n/ - tremolo bar dip
\n - tremolo bar dive
-/n - tremolo bar Release up
/n\ - tremolo bar inverted dip
/n - tremolo bar return
-\n - tremolo bar Release down
S - shift slide
s - legato slide
/ -  slide into from below or out of upwards
\ -  slide into from above or out of downwards
~ - vibrato
W - wide vibrato
tr - trill
TP - tremolo picking
T - tapping
S - slap
P - pop
< - fade in
^ - brush up
v - brush down
comments
We did not receive enough feedback on this tab! Please rate:
print report bad tab
1 2 3 4 5
I want to post or [tab]
guest
You may want to rate the tab now too:
select rating
Please do not post tabs as comments. Select "correction" instead!