Oops, an error
Loading. Please wait.

Little People Tab

version 2
version 2

Whole song

Interactive

820 views 6 this week
no commentswrite comment
1 2 3 4 5
please rate
add to favorites
launch autoscroll
font size
0
reset
how to read this tab
guitar tuner
Tab Pro tools
  • play this tab
  • loop segment
  • change instrument
  • show fretboard
  • metronome
Autoscroll
slow
fast
+/-
esc
set tempo
stop
Easy song.
This is just the basic chords.


Use these chords and improve some.

* - mute chord.
~ - increase volume.


e||----------------------------------------|
B||----------------------------------------|
G||----------------------------------------|
D||----7---5---7-------7*---7*---7*--------|
A||----7---5---7-------7*---7*---7*--------|
E||----5---3---5-------5*---5*---5*--------|X4


                   
e||----------------------------------------|
B||----------------------------------------|
G||----------------------------------------|
D||----7-------------7*---7*---7*---7*---7*|  
A||----7-------------7*---7*---7*---7*---7*|
E||----5-------------5*---5*---5*---5*---5*|


e||-------------------------------------------|
B||-------------------------------------------|
G||-------------------------------------------|
D||-7*---7*---7*---7*---7*---7*---7*---7*---7*|  
A||-7*---7*---7*---7*---7*---7*---7*---7*---7*|
E||-5*---5*---5*---5*---5*---5*---5*---5*---5*|


    There's a little girl..
e||-------------------------------------------|
B||-------------------------------------------|
G||-------------------------------------------|   \
D||-7*---7*---7*---7*---7*---7*---7*---7*---7*|     \
A||-7*---7*---7*---7*---7*---7*---7*---7*---7*|       \
E||-5*---5*---5*---5*---5*---5*---5*---5*---5*|          \
                                                      those X2

e||-------------------------------------------|         /
B||-------------------------------------------|       /
G||-------------------------------------------|     /
D||-7*---7*---7*---7*---7*---7*---7*---7*---7*|  /
A||-7*---7*---7*---7*---7*---7*---7*---7*---7*|
E||-5*---5*---5*---5*---5*---5*---5*---5*---5*|


    Hello...
e||----------------------------------------|
B||----------------------------------------|
G||----------------------------------------|
D||----5-------------7*---7*---7*---7*---7*|  
A||----5-------------7*---7*---7*---7*---7*|
E||----3-------------5*---5*---5*---5*---5*|

                          o-ohhh
e||-------------------------------------------|        
B||-------------------------------------------|      
G||-------------------------------------------|    
D||-------------~~-7*---7*---7*---7*----7*----|
A||-------------~~-7*---7*---7*---7*----7*----|
E||-------------~~-5*---5*---5*---5*----5*----|



e||----------------------------------------|
B||----------------------------------------|
G||----------------------------------------|
D||----7-------------7*---7*---7*---7*---7*|  
A||----7-------------7*---7*---7*---7*---7*|
E||----5-------------5*---5*---5*---5*---5*|


e||-------------------------------------------|         
B||-------------------------------------------|       
G||-------------------------------------------|     
D||-7*---7*---7*---7*---7*---7*---7*---7*---7*|  
A||-7*---7*---7*---7*---7*---7*---7*---7*---7*|
E||-5*---5*---5*---5*---5*---5*---5*---5*---5*|


    There's a little boy..
e||-------------------------------------------|         
B||-------------------------------------------|       
G||-------------------------------------------|    
D||-7*---7*---7*---7*---7*---7*---7*---7*---7*| 
A||-7*---7*---7*---7*---7*---7*---7*---7*---7*|   \
E||-5*---5*---5*---5*---5*---5*---5*---5*---5*|      \
                                                       Those 2X
                                                     /
e||-------------------------------------------|   /   
B||-------------------------------------------|       
G||-------------------------------------------|     
D||-7*---7*---7*---7*---7*---7*---7*---7*---7*|  
A||-7*---7*---7*---7*---7*---7*---7*---7*---7*|
E||-5*---5*---5*---5*---5*---5*---5*---5*---5*|



 Hello...
e||----------------------------------------|
B||----------------------------------------|
G||----------------------------------------|
D||----5-------------7*---7*---7*---7*---7*|  
A||----5-------------7*---7*---7*---7*---7*|
E||----3-------------5*---5*---5*---5*---5*|

                          o-ohhh
e||-------------------------------------------|        
B||-------------------------------------------|      
G||-------------------------------------------|    
D||-------------~~-7*---7*---7*---7*----7*----|
A||-------------~~-7*---7*---7*---7*----7*----|
E||-------------~~-5*---5*---5*---5*----5*----|



e||----------------------------------------|
B||----------------------------------------|
G||----------------------------------------|
D||----7-------------7*---7*---7*---7*---7*|  
A||----7-------------7*---7*---7*---7*---7*|
E||----5-------------5*---5*---5*---5*---5*|


e||-------------------------------------------|         
B||-------------------------------------------|       
G||-------------------------------------------|     
D||-7*---7*---7*---7*---7*---7*---7*---7*---7*|  
A||-7*---7*---7*---7*---7*---7*---7*---7*---7*|
E||-5*---5*---5*---5*---5*---5*---5*---5*---5*|


e||-------------------------------------------|         
B||-------------------------------------------|       
G||-------------------------------------------|     
D||-7*---7*---7*---7*---7*---7*---7*---7*---7*|  
A||-7*---7*---7*---7*---7*---7*---7*---7*---7*|
E||-5*---5*---5*---5*---5*---5*---5*---5*---5*|


e||-------------------------------------------|         
B||-------------------------------------------|       
G||-------------------------------------------|     
D||-7*---7------------------------------------|  
A||-7*---7------------------------------------|
E||-5*---5------------------------------------|

Now go back to the beginning. Play whole song over again, except the last part.
Then use the different part eg. "There is a little girl.." - and put them in after
the second time, when you've heard the song.

First tab- be cool ^^

By; Max Petersson
comments
We did not receive enough feedback on this tab! Please rate:
print report bad tab
1 2 3 4 5
I want to post or [tab]
guest
You may want to rate the tab now too:
select rating
Please do not post tabs as comments. Select "correction" instead!