Oops, an error
Loading. Please wait.

Lord Send Me An Angel Tab

version 2
version 2

Whole song

Interactive

5,204 views 9 this week
no commentswrite comment
1 2 3 4 5
please rate
add to favorites
launch autoscroll
font size
0
reset
how to read this tab
guitar tuner
Tab Pro tools
  • play this tab
  • loop segment
  • change instrument
  • show fretboard
  • metronome
×
Best way to learn
"Lord Send Me An Angel"
Autoscroll
slow
fast
+/-
esc
set tempo
stop
Intro and break goes a bit like this

   A A7  E     E7 E  D Dsus4      A        E
                       | D
E|-0--3-----0--0--0--2-3-2--------0---------------------------------|
B|-2--2-----0--3--0--3-3-3--------2--------0------------------------|
G|-2--2--1--1--1--1--2-2-2--------2--------1-----------2p0----------|
D|-2--2--2-----------0-0-0--------2--------2---------------2p0------|
A|-0--0--2----------------------0-0-0------2---------0---------3b-0-|
E|-0-----0-----------------0-2-4-----4-2-0-----0-2-4----------------|

Verse                                   Dsus4
        A   A7       E   E7  D          |  D
E|------0---3--------0---0---2---2------3--2---2-----|
B|------2---2--------0---3---3---3------3--3---3-----|
G|------2---2--------2---2---2---2------2--2---2-----|
D|------2---2--------2---2---0---0------0--0---0-----|
A|------0---0--------1---1---------------------------|
E|---------------------------------------------------|
   Good Lord    Good Lord    Send me an an-gel down
comments
We did not receive enough feedback on this tab! Please rate:
print report bad tab
1 2 3 4 5
I want to post or [tab]
guest
You may want to rate the tab now too:
select rating
Please do not post tabs as comments. Select "correction" instead!