Oops, an error
Loading. Please wait.

My Doorbell Bass Tab

version 2
version 2

Whole song

Interactive

1,118 views 1 this week
no commentswrite comment
1 2 3 4 5
please rate
add to favorites
launch autoscroll
font size
0
reset
guitar tuner
Tab Pro tools
  • play this tab
  • loop segment
  • change instrument
  • show fretboard
  • metronome
×
Best way to learn
"My Doorbell"
Autoscroll
slow
fast
+/-
esc
set tempo
stop
Contributor
Difficulty
The White Stripes- My Doorbell, from Get Behind Me Satan.  
Please rate!

Verse:

 |----------------|
 |--------11-----1|     Play until chorus starts
 |----11----------|    (those aren't elevens, they are ones)
 |11----------11--|     


Chorus:

 |-------------------|
 |--------1-1--------|  Repeat
 |----1-1------------|
 |1-1---------1-1-0--|


Bridge:

 |-------------------------------------------------------|
 |---1--------1-3----1-3-----3-1----1--------1-3----1-3--|
 |3----3-1--3------3-------------3----3-1--3------3------|
 |-------------------------------------------------------|

 |---------------------------------------|
 |3-1----1-------------------------------|  
 |----3----3-1--3-1---------------11-----|
 |------------------4-4-4-4-4-4-4-----1--|
comments
We did not receive enough feedback on this tab! Please rate:
print report bad tab
1 2 3 4 5
I want to post or [tab]
guest
You may want to rate the tab now too:
select rating
Please do not post tabs as comments. Select "correction" instead!