Oops, an error
Loading. Please wait.

Offend In Every Way Bass Tab

version 2
version 2

Whole song

Interactive

2,818 views 1 this week
3 commentsread comments
1 2 3 4 5
excellent!
x 1
add to favorites
launch autoscroll
font size
0
reset
guitar tuner
Tab Pro tools
  • play this tab
  • loop segment
  • change instrument
  • show fretboard
  • metronome
×
Best way to learn
"Offend In Every Way"
Autoscroll
slow
fast
+/-
esc
set tempo
stop
Contributor
Difficulty
novice
   Riff 1 0-22

G---------------------------------------------------------|
D-0----------------055-535700-7h8p7535--------------------|
A--310----013---313-------------------01233-310-------01--|
E-----33-3---11----------------------3---------311-113--3-|

   Riff 2 25-46

G-------------------------7-7-7-7---------5-5-5-5--------------|
D-5-5-5-5-3-3-3-3-5-5-5-5---------5-5-5-5---------3-3-3-3-5~5--| 
A--------------------------------------------------------------|
E--------------------------------------------------------------|

   Riff 3 46-1:07

G-----------------------------------------------------------------|
D-0--0--------------055-535700-778753575-----------0--------------|
A--31-1----013---313-----------------------01233-31---------01----|
E------33-3---11--------------------------3----------311-113---3--|

  
Riff 4 1:28-1:49

G-----------------------------------------------------------------|
D-0--0---------------055-535700-778753575-------------------------|
A--31-1----013----313-----------------------01233-310--------01---|
E------33-3---11--------------------------3----------311-113---3--|


This is the order:

Riff 1 
Riff 2 
Riff 3 
Riff 2 
Riff 4 
Riff 2 
Riff 4 
Riff 1 

KEY:
h-hammer on
p-pull off
~-hold note

By Cameron 

For any suggestions email me at camster4153@hotmail.com
comments
We did not receive enough feedback on this tab! Please rate:
print report bad tab
1 2 3 4 5
3 comments total.
0 reply
Frusconbage wrote on July 19 2007, 06:17 pm

How come there's a bass tab under White Stripes? There's no bassist in that band!

0 reply
bucketheaddude wrote on July 25 2007, 02:39 am

The White Stripes Don't have a bassist, Jack White does the bass parts on guitar. Also, put spaces between the notes.

0 reply
camster4153 wrote on August 10 2007, 07:13 am

of course theres no bass in the song people, but there was another bass tab for it but it wasn't complete so I did it again, its just the version of guitar but converted to bass.

I want to post or [tab]
guest
You may want to rate the tab now too:
select rating
Please do not post tabs as comments. Select "correction" instead!