Oops, an error
Loading. Please wait.

Offend In Every Way Tab

version 4
version 4

Intro

Interactive

1,848 views 1 this week
no commentswrite comment
1 2 3 4 5
worth learning
x 3
add to favorites
launch autoscroll
font size
0
reset
how to read this tab
guitar tuner
Tab Pro tools
  • play this tab
  • loop segment
  • change instrument
  • show fretboard
  • metronome
×
Best way to learn
"Offend In Every Way"
Autoscroll
slow
fast
+/-
esc
set tempo
stop
Contributor
                     Offend in every way-- White Stripes
Tabbed by:Kurt2fatty13
Email:kurt2fatty@msn.com

Tuning:Reg.,
Intro
e|--------------------------------------------------------------2-----------|
B|--------------------------------------------------------------3-----------|
G|----------------4---------------------------0-----0---0--2----2-----------|
D|----------------5--------------3-----------0----5----3------0-------------|
A|--5--3----------5----------3---3--3--1--3-------5-------------------------|
E|-------6--5--3--3--3--5--6---1-1----------------3-------------------------|

e|--------------------------------------------------------------------------|
B|-2/3--2--0---0---------------------1--------------------------------------|
G|------------3----4--------------------------------------------------------|
D|-----------------5-----------------2-----------------3------------5-------|
A|-----------------5-----0--1--2--3--3--3--1--0--------3-------0--1-5-------|
E|-----------------3--3--------------------------3--1--1--1--3------3-------|

Verse
e|-------------------------------------------2--2--2--2---------------------|
B|-------------------------------------------3--3--3--3---------------------|
G|-4--4--4--4------------------4--4--4--4----2--2--2--2----4--4--4--4-------|
D|-5--5--5--5----3--3--3--3----5--5--5--5------------------5--5--5--5-------|
A|-5--5--5--5----3--3--3--3----5--5--5--5------------------5--5--5--5-------|
E|-3--3--3--3----1--1--1--1----3--3--3--3------------------3--3--3--3-------|

e|---------------------------------------------------------------------------|
B|-1--1--1--1----------------------------------------------------------------|
G|-0--0--0--0------------------4--4--4--4------------------------------------|
D|-2--2--2--2----3--3--3--3----5--5--5--5------------------------------------|
A|-3--3--3--3----3--3--3--3----5--5--5--5------------------------------------|
E|---------------1--1--1--1----3--3--3--3------------------------------------|

e|------------------------------------------------------------2-------------|
B|------------------------------------------------------------3-------------|
G|------------4------------------------------0-------0--0--2--2-------------|
D|-0---0------5-------------3--3--3---------0---5--5---3----0---------------|
A|--3-1-1-----5----------3--3--3--3--3--1--3----5--5------------------------|
E|---------3--3--3--5--6----1--1--1-------------3--3------------------------|

e|--------------------------------------------------------------------------|
B|---------------------------------1----------------------------------------|
G|-2/3-3-2-0--0-2-0----------------0----------------------------------------|
D|-----------3---------------------2----------------3-------------5---------|
A|---------------------0--1--2--3--3--3--1--0-------3-------0--1--5---------|
E|-------------------3------------------------3--1--1--1--3-------3---------|

| /  slide up
| \  slide down
| h  hammer-on
| p  pull-off
| ~  vibrato
| +  harmonic
| x  Mute note
===============================================================================
comments
We did not receive enough feedback on this tab! Please rate:
print report bad tab
1 2 3 4 5
I want to post or [tab]
guest
You may want to rate the tab now too:
select rating
Please do not post tabs as comments. Select "correction" instead!