Oops, an error
Loading. Please wait.

Offend In Every Way Tab

version 5
version 5

Intro

Interactive

2,938 views 9 this week
1 commentread comment
1 2 3 4 5
excellent!
x 6
add to favorites
launch autoscroll
font size
0
reset
how to read this tab
guitar tuner
Tab Pro tools
  • play this tab
  • loop segment
  • change instrument
  • show fretboard
  • metronome
×
Best way to learn
"Offend In Every Way"
Autoscroll
slow
fast
+/-
esc
set tempo
stop
!!!IMPORTANT!!!: When I have "10" written in the verse, that is not fret 10 , it is a
quick jump from 5 to 0, fast enough that it kinda sounds like the 5 is PMed. I put it
like this so that you don't play it so slow, cause then people are like "he only hits
it 4 times, yada yada yada..." he hits it 5 times! The last one is very quick though.


This is a very easy song to play, one of the first ones I learned, good luck and don't
quit. Oh, and I tabbed this on an acoustic, so if it sounds different/wrong on an electric, that's why.


. = very light PM

/ = slide to next note

_ = parts played faster and seem somewhat out of beat

x = a mute with your finger lying across the string but not pressing hard enough to
make the note. You can play it without these, I just find it sounds   much better with
them, especially on an acoustic


Introduction:
E-----------x-----------x----------x-----------x-------------x------------x---|
B-----------x-----------x----------x-----------x-------------x------------x---|
G-----------x-----------x----------x-----------7-------------x------------x---|
D-----------5-----------3--------5-5-5-3-5-7-0-7-7/8-7-5-3-5-5-----------10---|
A-5-3-1-0---5-----------3-3-1-3-5--5-----------5-------------5-----------10---|
E---------3-3-3-5-6-8-1-1----------3-------------------------3-3-5-6-7-8-8--8-|

--------x---------x--|
--------x---------x--|
--------x---------x--|
--------3---------5--|
--------3---------5--|
6-5-3-1-1-1-3-5-6-3--|


~remember: 10 is a quick jump from 1 to 0, not fret 10.

Verse:
E-x-x-x-x-xx-x-x-x-x-xx-x-x-x-x-xx-x-x--x-x-xx-x-x-x-xx-x-x-x-xx-x-x-x-xx-x-x-|
B-x-x-x-x-xx-x-x-x-x-xx-x-x-x-x-xx-x-x--x-x-xx-x-x-x-xx-x-x-x-xx-x-x-x-xx-x-x-|
G-x-x-x-x-xx-x-x-x-x-xx-x-x-x-x-xx-9-9--9-9-9x-x-x-x-xx-x-x-x-xx-x-x-x-xx-x-x-|
D-5-5-5-5-50-3-3-3-3-30-7-7-7-7-70-9-9--9-9-90-3-3-3-30-7-7-7-70-5-5-5-50-3-3-|
A-5-5-5-5-50-3-3-3-3-30-7-7-7-7-70-7-7--7-7-70-3-3-3-30-7-7-7-70-5-5-5-50-3-3-|
E-3-3-3-3-30-1-1-1-1-10-5-5-5-5-50---------- 0-1-1-1-10-5-5-5-50-3-3-3-30-1-1-|
               . . . ... . . . ..       .      . . . .. . . . .. . . . ..

E-----------x-x-----------x----------x-----------x---------------------x------------x-|
B-----------x-x-----------x----------x-----------x---------------------x------------x-|
G-----------x-x-----------x----------x-----------7---------------------x------------x-|
D-----------5-5-----------3--------5-5-5-3-5-7-0-7-7/8-7-7-5-3-4/5-3-5-5-----------10-|
A-5-3-1-5-1-5-5-----------3-3-1-3-5--5-----------5---------------------5-----------10-|
E-----------3-3-3-5-6-8-1-1----------3---------------------------------3-3-5-6-7-8-8--|
  _________                 _____      _____       ___________________


------------x---------x-x-|
------------x---------x-x-|
------------x---------x-x-|
------------3---------5-5-|
------------3---------5-5-|
-8-6-10-3-1-1-1-3-5-6-3-3-|

Verse:
"
"
"
"
"
"


E-----------x-x-----------x----------x-----------x---------------------x------------x-|
B-----------x-x-----------x----------x-----------x---------------------x------------x-|
G-----------x-x-----------x----------x-----------7---------------------x------------x-|
D-----------5-5-----------3--------5-5-5-3-5-7-0-7-7/8-7-7-5-3-4/5-3-5-5-----------10-|
A-5-3-1-5-1-5-5-----------3-3-1-3-5--5-----------5---------------------5-----------10-|
E-----------3-3-3-5-6-8-1-1----------3---------------------------------3-3-5-6-7-8-8--|
  _________                 _____      _____       ___________________


-----------x---------x-x-|
-----------x---------x-x-|
-----------x---------x-x-|
-----------3---------5-5-|
-----------3---------5-5-|
-8-6-5-3-1-1-1-3-5-6-3-3-|


verse:
"
"
"
"
"
"


E-----------x-x-----------x----------x-----------x---------------------x------------x-|
B-----------x-x-----------x----------x-----------x---------------------x------------x-|
G-----------x-x-----------x----------x-----------7---------------------x------------x-|
D-----------5-5-----------3--------5-5-5-3-5-7-0-7-7/8-7-7-5-3-4/5-3-5-5-----------10-|
A-5-3-1-5-1-5-5-----------3-3-1-3-5--5-----------5---------------------5-----------10-|
E-----------3-3-3-5-6-8-1-1----------3---------------------------------3-3-5-6-7-8-8--|
  _________                 _____      _____       ___________________


-----------x---------x---------------------x-----------x----------x-----------x-------------x------------x---|
-----------x---------x---------------------x-----------x----------x-----------x-------------x------------x---|
-----------x---------x---------------------x-----------x----------x-----------7-------------x------------x---|
-----------3---------5---------------------5-----------3--------5-5-5-3-5-7-0-7-7/8-7-5-3-5-5-----------10---|
-----------3---------5-----------5-3-1-0---5-----------3-3-1-3-5--5-----------5-------------5-----------10---|
-8-6-5-3-1-1-1-3-5-6-3-3-3-3-3-3---------3-3-3-5-6-8-1-1----------3-------------------------3-3-5-6-7-8-8--8-|

--------x---------x-|
--------x---------x-|
--------x---------x-|
--------3---------5-|
--------3---------5-|
6-5-3-1-1-1-3-5-6-3-|
comments
print report bad tab
1 comment total.
0 reply
NoelGallagher01 wrote on January 4 2007, 08:16 pm

pretty damn good Mr jack white himself would be proud lol :)

I want to post or [tab]
guest
You may want to rate the tab now too:
select rating
Please do not post tabs as comments. Select "correction" instead!