Oops, an error
Loading. Please wait.

One More Cup Of Coffee Tab

version 1
version 1

Whole song

Interactive

59,813 views 48 this week
2 commentsread comments
1 2 3 4 5
excellent!
x 36
add to favorites
launch autoscroll
font size
0
reset
how to read this tab
guitar tuner
Tab Pro tools
  • play this tab
  • loop segment
  • change instrument
  • show fretboard
  • metronome
×
Best way to learn
"One More Cup Of Coffee"
Autoscroll
slow
fast
+/-
esc
set tempo
stop
Contributor
Artist: The White Stripes
Song: One More Cup Of Coffee
Originally by Bob Dylan
Submitted By: Stetson Keely
Album: White Stripes (Debut)

Its pretty simple: Pretty much exactly the same as the Bob Dylan version really.
Its a shame people dont tab many songs off the White Stripes first album,
they're really hard to find but this is one of the best ones.

INTRO:
e -----------------------------------------------------
B------------------------------------------------------
G--------2--------------------------------------1------
D--------2------7--9--7--5--3--5--7--5--3--2----2------
A------0-0---2----------------------------------2------
E--0h3-------3-----------------------------------------



then:
       Am  G  F  E
e----------3--1-----
B-------1-----1-----
G-------2-----2--1--
D-------2-----3--2--
A-----0-0--2-----2--
E--0h3-----3--------

VERSE:
      Am
You breath is sweet and weak your eyes like
G
two jewels in the sky
F
your back is straight your hair is smooth  
         E
on the pillow where you lie

e-------
B-------
G-------
D--0-1-2
A-------
E-------

Am
but i dont sense affection
G
no gratitude no love
F
your loyalty is not to me
     E
but to the stars above

CHORUS:
F (let ring)                   E
One more cup of coffee for the road
F (let ring)                   E
One more cup of coffee 'fore i go
(no chord)      Am
to the valley below

Break: Am G F E

Verse 2:
your daddy is an outlaw
and a wonderer by trade
he'll teach you how to pick and choose 
and how to throw the blade

he oversees his kingdom
so no stranger does intrude
his voice it trembles as he calls out
for another plate of food

CHORUS

Break: Am G F E

Verse 3:
your sister sees the future 
like your mother and yourself
you dont know how to read or write
theres no books upon your shelf

but your pleasure knows no limits 
and your voice is like a mellow lark
your heart is like the ocean
mysterious and dark

CHORUS







::What a season to be beautiful without a reason::
comments
print report bad tab
2 comments total.
+4 reply
coffeefreak1 wrote on March 15 2009, 08:28 pm

e -----------------------------------------------------
B------------------------------------------------------
G--------2--------------------------------------1------
D--------2------7--9--7--5--3--5--7--5--3--2----2------
A------0-0---2----------------------------------2------
E--0h3-------3-----------------------------------------

this is coming up a bit short, it should look more like this IMO:
e-------------------------------------------------------------------
B-------------------------------------------------------------------
G--------2-2-2-2--------------------------------------------------1-
D--------2-2-2-2-------7-7h9--7--/5--5/3--5--5h7--5--3-3-3/2------2-
A------0-0-0-0-0--2-2---------------------------------------------2-
E--0h3------------3-2-----------------------------------------------

mind you, that might still be a bit off, but i definitley think the original is off either way..

0 reply
Jess113 wrote on April 1 2011, 07:18 pm

e---24------- 

I want to post or [tab]
guest
You may want to rate the tab now too:
select rating
Please do not post tabs as comments. Select "correction" instead!