Oops, an error
Loading. Please wait.

Outlaw Blues Tab

version 2
version 2

Whole song

Interactive

3,846 views 6 this week
2 commentsread comments
1 2 3 4 5
excellent!
x 2
add to favorites
launch autoscroll
font size
0
reset
how to read this tab
guitar tuner
Tab Pro tools
  • play this tab
  • loop segment
  • change instrument
  • show fretboard
  • metronome
Autoscroll
slow
fast
+/-
esc
set tempo
stop
Contributor
Difficulty
intermediate
| Tab Definitions:							  |
|  E5: 02xxxx (022xxx)							  |
|  E6: 04xxxx								  |
|  E7: 05xxxx								  |
|  A5: x02xxx (x022xx)							  |
|  A6: x04xxx   							  |
|  A7: x05xxx   							  |
|  B5: x244xx

Played 3x:
   E5    E6    E7
e|------------------------------|
B|------------------------------|
G|------------------------------|
D|------------------------------|
A|-2--2--4--4--5--5--5-4-5-4-2--|
E|-0--0--0--0--0--0--0-0-0-0-0--|

<

Played 4x:
   E5    E6    E7    RIFF 1
e|----------------------------|
B|----------------------------|
G|----------------------------|
D|----------------------------|
A|-2--2--4--4--5--5--4-5-4-2--|
E|-0--0--0--0--0--0--0-0-0-0--|

Played 2x:
   A5    A6    A7    RIFF 2
e|----------------------------|
B|----------------------------|
G|----------------------------|
D|-2--2--4--4--5--5--4-5-4-2--|
A|-0--0--0--0--0--0--0-0-0-0--|
E|----------------------------|

Played 2x:
E5  E6  E7  RIFF 1

   B5                   A5  RIFF 3
e|---------------------------------------|
B|---------------------------------------|
G|-4--4--4--4--4--4--4--2----------------|
D|-4--4--4--4--4--4--4--2----------------|
A|-2--2--2--2--2--2--2--0----------------|
E|--------------------------3b5-3-3b5-3--|


Played 2x: E5  E6  E7  RIFF 1

VERSE 1:
        E5     E6  E7  RIFF 1  E5
Well, I wish I was
   E6      E7      RIFF 1   E5    E6  E7  RIFF 1  E5  E6  E7
On some Australian mountain range
  RIFF 1    A5     A6  A7  RIFF 2  A5
Oh, well, I wish I was
   A6      A7      RIFF 2   E5    E6  E7  RIFF 1  E5  E6  E7
On some Australian mountain range
  RIFF 1 B5                        A5 N.C.
I got no reason to be there, but I
                                 E5     E6  E7  RIFF 1  B5
Imagine it would be some kind of change

BREAK:
   E5                            E5                              E5
      8^         /8 8^          8  8^         8~                8  8^         /8 8~ 8^ 8~8^ 8~ 8~ 8~
e|----5b6--5-3---3--3--------------5b6--5-3---3--5b6--5-3----------5b7--5-3-3-3-----3-----3-----3----|
B|-------------5-------5--5-5~--------------5-------------5~-5-------------------5-----5-----5-----5-|
G|---------------------------------------------------------------------------------------------------|
D|-2-----------------------------2-------------------------------2-----------------------------------|
A|-2-----------------------------2-------------------------------2-----------------------------------|
E|-0-----------------------------0-------------------------------0-----------------------------------|

   8^ 8~ 8^ 8~ 8~ 8
e|-3-----3----(3)--|
B|----5-----5------|
G|-----------------|
D|-----------------|
A|-----------------|
E|-----------------|

Played 2x:
A5  A6  A7  RIFF 2

Played 2x:
E5  E6  E7  RIFF 1

B5  A5  RIFF 3

Played 2x:
E5  E6  E7  RIFF 1

VERSE 2:
         E5 N.C.         E5 N.C.
I got my dark sunglasses
                                          X
I'm carryin' for good luck my black tooth
         A5
I got my dark sunglasses
N.C.                                E5    E6  E7  RIFF 1  E5  E6  E7    RIFF 1
I'm carryin' for good luck my black tooth                 yeah    (yeah)
      B5                                 A5 N.C.
Don't ask me nothin' about nothin', well
                                E5  E6  E7  RIFF 1  E5
I just might tell you the truth

e|-------------------------------------|
B|-------------------------------------|
G|-------------------------------------|
D|-------------------------------------|
A|-------------------------------------|
E|-2~---0-3~---0-5~--0-6~--0-7~--0-8~--|

E5
comments
We did not receive enough feedback on this tab! Please rate:
print report bad tab
1 2 3 4 5
2 comments total.
0 reply
jimizeppelin wrote on October 4 2005, 01:30 pm

Sounds Just Like it Having Trouble with the solo though.

0 reply
loopdeloop wrote on October 8 2005, 07:54 am

Stolen from Broken Bricks.



http://www.brokenbricks.com/cgi-bin/tab.cgi?/tabs/Under%20Blackpool%20Lights/Outlaw%20Blues%20(Live,%20Empress%20Ballroom).txt

I want to post or [tab]
guest
You may want to rate the tab now too:
select rating
Please do not post tabs as comments. Select "correction" instead!