Oops, an error
Loading. Please wait.

Pain Tab

2,004 views 6 this week
1 commentread comment
1 2 3 4 5
please rate
add to favorites
launch autoscroll
font size
0
reset
how to read this tab
guitar tuner
Tab Pro tools
  • play this tab
  • loop segment
  • change instrument
  • show fretboard
  • metronome
×
Best way to learn
"Pain"
Autoscroll
slow
fast
+/-
esc
set tempo
stop
Contributor
Song: Pain
Band: The White Stripes

!Tabbed by Ardor!

Tuning: EADGHE

Intro:

  F       G#      A#
e---------------------|
B---------------------|
G---------------------|
D-33------66------88--|
A-33------66------88--|
E-11------44------66--|

"P...Pain Give me"


  F      F/G#       G#/A#     A#/G#  G#/A# G#/A#
e---------------------------------------------------|
B---------------------------------------------------|
G---------------------------------------------------|
D-33-----3->66------6->88------8->66--6->8-6->8-----|
A-33-----3->66------6->88------8->66--6->8-6->8-----|
E-11-----1->44------4->66------6->44--4->6-4->6-----|


Verse1:

 F       G#                     A#              G#
e------------------------------------------------------|
B------------------------------------------------------|
G------------------------------------------------------|
D-33------66------------------88--------------66-------|
A-33------66------------------88--------------66-------|
E-11------44------------------66--------------44-------|
    "Pain"  "Give me sympathy"  "Pain give me"  "Yeah"


 F          G#                    A#            G# G#/A# G#
e---------------------------------------------------------------|
B---------------------------------------------------------------|
G---------------------------------------------------------------|
D-33------66------------------88-----------------66-6->8--6-----|
A-33------66------------------88-----------------66-6->8--6-----|
E-11------44------------------66-----------------44-4->6--4-----|
    "Pain"  "Give me sympathy"  "Oh pain give me"     "Yeah"


Chorus:


  F         G#        A#        G#
e-----------------------------------------|
B-----------------------------------------|
G-----------------------------------------|
D-3-3--3-3--6-6--6-6--8-8--8-8--6-6--6-6--|
A-3-3--3-3--6-6--6-6--8-8--8-8--6-6--6-6--|
E-1-1--1-1--4-4--4-4--6-6--6-6--4-4--4-4--|

  F         G#        A#        G#
e------------------------------------------|
B------------------------------------------|
G------------------------------------------|
D-3-3--3-3--6-6--6-6--8-8--8-8--6-6--66----|
A-3-3--3-3--6-6--6-6--8-8--8-8--6-6--66----|
E-1-1--1-1--4-4--4-4--6-6--6-6--4-4--44----|

Chorus-Lyrics:

Deep down in my heart
Theirs a feeling
Like a burning explosion
And a hundred emotions

Post-Chorus:

        F       G#       A#
e----------------------------|
B----------------------------|
G----------------------------|
D-------33------66-------88--|
A-------33------66-------88--|
E-------11------44-------66--|

 "Over You"       "Over You"

Interlude:

F F             G#             A#            G#
e------------------------------------------------------|
B------------------------------------------------------|
G------------------------------------------------------|
D-3-3-3--3-3-3->6-6-6--6-6-6->8-8-8---8-8-8->6-6-6--6--|
A-3-3-3--3-3-3->6-6-6--6-6-6->8-8-8---8-8-8->6-6-6--6--|
E-1-1-1--1-1-1->4-4-4--4-4-4->6-6-6---6-6-6->4-4-4--4--|

Verse2:


  F            G#                     A#                 G#
e--------------------------------------------------------------------|
B--------------------------------------------------------------------|
G--------------------------------------------------------------------|
D-33------3-3->66------------------6->88--------------8->666--6------|
A-33------3-3->66------------------6->88--------------8->666--6------|
E-11------1-1->44------------------4->66--------------6->444--4------|
    "Pain"       "Give me sympathy"     "Pain give me"      "Yeah"

 F           G#                     A#                    G#
e----------------------------------------------------------------------|
B----------------------------------------------------------------------|
G----------------------------------------------------------------------|
D-33------3->66------------------6->88-----------------8->6-6-8-6------|
A-33------3->66------------------6->88-----------------8->6-6-8-6------|
E-11------1->44------------------4->66-----------------6->4-4-6-4------|
    "Pain"     "Give me sympathy"     "Oh pain give me"     "Woah"


Chorus:


  F         G#        A#        G#
e-----------------------------------------|
B-----------------------------------------|
G-----------------------------------------|
D-3-3--3-3--6-6--6-6--8-8--8-8--6-6--6-6--|
A-3-3--3-3--6-6--6-6--8-8--8-8--6-6--6-6--|
E-1-1--1-1--4-4--4-4--6-6--6-6--4-4--4-4--|

  F         G#        A#        G#
e------------------------------------------|
B------------------------------------------|
G------------------------------------------|
D-3-3--3-3--6-6--6-6--8-8--8-8--6-6--66----|
A-3-3--3-3--6-6--6-6--8-8--8-8--6-6--66----|
E-1-1--1-1--4-4--4-4--6-6--6-6--4-4--44----|

Chorus-Lyrics:

Deep down in my heart
Theirs a feeling
Like a burning explosion
And a hundred emotions


Post-Chorus2:

        F       G#       A#
e-----------------------------|
B-----------------------------|
G-----------------------------|
D------333------666------888--|
A------333------666------888--|
E------111------444------666--|
 "Over You"        "Over You"


Outro:


   A#            F
e---------------------|
B---------------------|
G---------------------|
D--888--888---3--333--|
A--888--888------333--|
E--666--666------111--|
comments
We did not receive enough feedback on this tab! Please rate:
print report bad tab
1 2 3 4 5
1 comment total.
0 reply
sonicyouth1 wrote on June 6 2010, 12:07 pm

how do you tune to H. Good tab though.

I want to post or [tab]
guest
You may want to rate the tab now too:
select rating
Please do not post tabs as comments. Select "correction" instead!